  0
SECTION
  2
HEADER
  9
$ACADVER
  1
AC1006
  9
$EXTMIN
 10
3.725040
 20
0.284680
  9
$EXTMAX
 10
7.907680
 20
3.640120
  9
$LTSCALE
 40
0.044000
  9
$PDMODE
 70
    35
  9
$PDSIZE
 40
0.035200
  0
ENDSEC
  0
SECTION
  2
TABLES
  0
TABLE
  2
LTYPE
 70
     9
  0
LTYPE
  2
CONTINUOUS
 70
    64
  3
Solid line
 72
    65
 73
     0
 40
0.000000
  0
LTYPE
  2
DASHED
 70
    64
  3
__ __ __ __ __ __ __ __ __ __ __ __ __ __ __
 72
    65
 73
     2
 40
0.000330
 49
0.000220
 49
-0.000110
  0
LTYPE
  2
HIDDEN
 70
    64
  3
 _ _ _ _ _ _ _ _ _ _ _ _ _ _ _ _ _ _ _ _ _ _
 72
    65
 73
     2
 40
0.000165
 49
0.000110
 49
-0.000055
  0
LTYPE
  2
CENTER
 70
    64
  3
____ _ ____ _ ____ _ ____ _ ____ _ ____ _ ____
 72
    65
 73
     4
 40
0.000880
 49
0.000550
 49
-0.000110
 49
0.000110
 49
-0.000110
  0
LTYPE
  2
PHANTOM
 70
    64
  3
_____ _ _ _____ _ _ _____ _ _ _____ _ _ ____
 72
    65
 73
     6
 40
0.001100
 49
0.000550
 49
-0.000110
 49
0.000110
 49
-0.000110
 49
0.000110
 49
-0.000110
  0
LTYPE
  2
DOT
 70
    64
  3
...............................................
 72
    65
 73
     2
 40
0.000110
 49
0.000000
 49
-0.000110
  0
LTYPE
  2
DASHDOT
 70
    64
  3
__ . __ . __ . __ . __ . __ . __ . __ . __ . __
 72
    65
 73
     4
 40
0.000440
 49
0.000220
 49
-0.000110
 49
0.000000
 49
-0.000110
  0
LTYPE
  2
BORDER
 70
    64
  3
__ __ . __ __ . __ __ . __ __ . __ __ . __ __
 72
    65
 73
     6
 40
0.000770
 49
0.000220
 49
-0.000110
 49
0.000220
 49
-0.000110
 49
0.000000
 49
-0.000110
  0
LTYPE
  2
DIVIDE
 70
    64
  3
__ . . __ . . __ . . __ . . __ . . __ . . __
 72
    65
 73
     6
 40
0.000550
 49
0.000220
 49
-0.000110
 49
0.000000
 49
-0.000110
 49
0.000000
 49
-0.000110
  0
LTYPE
  2
DOTDOT
 70
    64
  3
 . .  . .  . .  . .  . .  . . 
 72
    65
 73
     5
 40
0.000242
 49
-0.000110
 49
0.000000
 49
-0.000110
 49
0.000000
 49
-0.000110
  0
ENDTAB
  0
TABLE
  2
STYLE
 70
     2
  0
STYLE
 70
     0
  2
SN0
 40
0.000000
 41
0.000440
 50
0.000000
 71
     0
 42
0.000000
  3
ROMAND
  0
STYLE
 70
    68
  2
SV0
 40
0.000000
 41
0.000440
 50
0.000000
 71
     0
 42
0.000000
  3
ROMAND
  0
ENDTAB
  0
TABLE
  2
LAYER
 70
     3
  0
LAYER
  2
FOREGROUND
 70
    64
 62
     7
  6
CONTINUOUS
  0
LAYER
  2
BACKGROUND
 70
    65
 62
    -7
  6
CONTINUOUS
  0
LAYER
  2
0
 70
    64
 62
     7
  6
CONTINUOUS
  0
ENDTAB
  0
ENDSEC
  0
SECTION
  2
ENTITIES
  0
POLYLINE
  8
FOREGROUND
  6
CONTINUOUS
 66
     1
 40
0.000000
 41
0.000000
  0
VERTEX
  8
FOREGROUND
  6
CONTINUOUS
 10
0.000000
 20
3.924800
  0
VERTEX
  8
FOREGROUND
  6
CONTINUOUS
 10
8.499920
 20
3.924800
  0
VERTEX
  8
FOREGROUND
  6
CONTINUOUS
 10
8.499920
 20
-7.075200
  0
VERTEX
  8
FOREGROUND
  6
CONTINUOUS
 10
0.000000
 20
-7.075200
  0
VERTEX
  8
FOREGROUND
  6
CONTINUOUS
 10
0.000000
 20
3.924800
  0
SEQEND
  8
0
  0
POLYLINE
  8
FOREGROUND
  6
CONTINUOUS
 66
     1
 40
0.000000
 41
0.000000
  0
VERTEX
  8
FOREGROUND
  6
CONTINUOUS
 10
0.000000
 20
3.924800
  0
VERTEX
  8
FOREGROUND
  6
CONTINUOUS
 10
8.499920
 20
3.924800
  0
VERTEX
  8
FOREGROUND
  6
CONTINUOUS
 10
8.499920
 20
-7.075200
  0
VERTEX
  8
FOREGROUND
  6
CONTINUOUS
 10
0.000000
 20
-7.075200
  0
VERTEX
  8
FOREGROUND
  6
CONTINUOUS
 10
0.000000
 20
3.924800
  0
SEQEND
  8
0
  0
POLYLINE
  8
0
  6
CONTINUOUS
 66
     1
 40
0.014080
 41
0.014080
  0
VERTEX
  8
0
  6
CONTINUOUS
 10
7.257800
 20
3.403400
  0
VERTEX
  8
0
  6
CONTINUOUS
 10
7.286840
 20
3.403400
  0
VERTEX
  8
0
  6
CONTINUOUS
 10
7.286840
 20
2.636480
  0
VERTEX
  8
0
  6
CONTINUOUS
 10
3.756280
 20
2.636480
  0
VERTEX
  8
0
  6
CONTINUOUS
 10
3.756280
 20
3.403400
  0
VERTEX
  8
0
  6
CONTINUOUS
 10
4.396040
 20
3.403400
  0
VERTEX
  8
0
  6
CONTINUOUS
 10
4.404400
 20
3.400760
  0
VERTEX
  8
0
  6
CONTINUOUS
 10
4.407480
 20
3.377880
  0
VERTEX
  8
0
  6
CONTINUOUS
 10
4.412760
 20
3.355440
  0
VERTEX
  8
0
  6
CONTINUOUS
 10
4.419800
 20
3.333880
  0
VERTEX
  8
0
  6
CONTINUOUS
 10
4.440040
 20
3.293840
  0
VERTEX
  8
0
  6
CONTINUOUS
 10
4.466880
 20
3.258640
  0
VERTEX
  8
0
  6
CONTINUOUS
 10
4.499880
 20
3.228280
  0
VERTEX
  8
0
  6
CONTINUOUS
 10
4.517920
 20
3.215520
  0
VERTEX
  8
0
  6
CONTINUOUS
 10
4.557960
 20
3.195280
  0
VERTEX
  8
0
  6
CONTINUOUS
 10
4.579520
 20
3.187800
  0
VERTEX
  8
0
  6
CONTINUOUS
 10
4.601520
 20
3.182080
  0
VERTEX
  8
0
  6
CONTINUOUS
 10
4.624840
 20
3.179000
  0
VERTEX
  8
0
  6
CONTINUOUS
 10
4.648160
 20
3.177680
  0
VERTEX
  8
0
  6
CONTINUOUS
 10
4.671480
 20
3.179000
  0
VERTEX
  8
0
  6
CONTINUOUS
 10
4.693920
 20
3.182080
  0
VERTEX
  8
0
  6
CONTINUOUS
 10
4.715920
 20
3.187800
  0
VERTEX
  8
0
  6
CONTINUOUS
 10
4.737480
 20
3.195280
  0
VERTEX
  8
0
  6
CONTINUOUS
 10
4.776640
 20
3.215960
  0
VERTEX
  8
0
  6
CONTINUOUS
 10
4.795120
 20
3.229160
  0
VERTEX
  8
0
  6
CONTINUOUS
 10
4.827240
 20
3.259520
  0
VERTEX
  8
0
  6
CONTINUOUS
 10
4.841320
 20
3.276680
  0
VERTEX
  8
0
  6
CONTINUOUS
 10
4.854080
 20
3.295600
  0
VERTEX
  8
0
  6
CONTINUOUS
 10
4.865080
 20
3.315400
  0
VERTEX
  8
0
  6
CONTINUOUS
 10
4.881360
 20
3.357640
  0
VERTEX
  8
0
  6
CONTINUOUS
 10
4.886640
 20
3.380080
  0
VERTEX
  8
0
  6
CONTINUOUS
 10
4.889720
 20
3.403400
  0
VERTEX
  8
0
  6
CONTINUOUS
 10
5.260200
 20
3.403400
  0
VERTEX
  8
0
  6
CONTINUOUS
 10
5.272080
 20
3.400760
  0
VERTEX
  8
0
  6
CONTINUOUS
 10
5.275160
 20
3.377880
  0
VERTEX
  8
0
  6
CONTINUOUS
 10
5.280440
 20
3.355440
  0
VERTEX
  8
0
  6
CONTINUOUS
 10
5.287920
 20
3.333880
  0
VERTEX
  8
0
  6
CONTINUOUS
 10
5.308160
 20
3.293840
  0
VERTEX
  8
0
  6
CONTINUOUS
 10
5.335000
 20
3.258640
  0
VERTEX
  8
0
  6
CONTINUOUS
 10
5.368000
 20
3.228280
  0
VERTEX
  8
0
  6
CONTINUOUS
 10
5.386040
 20
3.215520
  0
VERTEX
  8
0
  6
CONTINUOUS
 10
5.426080
 20
3.195280
  0
VERTEX
  8
0
  6
CONTINUOUS
 10
5.447640
 20
3.187800
  0
VERTEX
  8
0
  6
CONTINUOUS
 10
5.469640
 20
3.182080
  0
VERTEX
  8
0
  6
CONTINUOUS
 10
5.492960
 20
3.179000
  0
VERTEX
  8
0
  6
CONTINUOUS
 10
5.516280
 20
3.177680
  0
VERTEX
  8
0
  6
CONTINUOUS
 10
5.539600
 20
3.179000
  0
VERTEX
  8
0
  6
CONTINUOUS
 10
5.562040
 20
3.182080
  0
VERTEX
  8
0
  6
CONTINUOUS
 10
5.584040
 20
3.187800
  0
VERTEX
  8
0
  6
CONTINUOUS
 10
5.605160
 20
3.195280
  0
VERTEX
  8
0
  6
CONTINUOUS
 10
5.625840
 20
3.204960
  0
VERTEX
  8
0
  6
CONTINUOUS
 10
5.644760
 20
3.215960
  0
VERTEX
  8
0
  6
CONTINUOUS
 10
5.679960
 20
3.243680
  0
VERTEX
  8
0
  6
CONTINUOUS
 10
5.709440
 20
3.276680
  0
VERTEX
  8
0
  6
CONTINUOUS
 10
5.722200
 20
3.295600
  0
VERTEX
  8
0
  6
CONTINUOUS
 10
5.742000
 20
3.336080
  0
VERTEX
  8
0
  6
CONTINUOUS
 10
5.749040
 20
3.357640
  0
VERTEX
  8
0
  6
CONTINUOUS
 10
5.754320
 20
3.380080
  0
VERTEX
  8
0
  6
CONTINUOUS
 10
5.757400
 20
3.403400
  0
VERTEX
  8
0
  6
CONTINUOUS
 10
6.150760
 20
3.403400
  0
VERTEX
  8
0
  6
CONTINUOUS
 10
6.160440
 20
3.400760
  0
VERTEX
  8
0
  6
CONTINUOUS
 10
6.163520
 20
3.377880
  0
VERTEX
  8
0
  6
CONTINUOUS
 10
6.168800
 20
3.355440
  0
VERTEX
  8
0
  6
CONTINUOUS
 10
6.175840
 20
3.333880
  0
VERTEX
  8
0
  6
CONTINUOUS
 10
6.196080
 20
3.293840
  0
VERTEX
  8
0
  6
CONTINUOUS
 10
6.222920
 20
3.258640
  0
VERTEX
  8
0
  6
CONTINUOUS
 10
6.255920
 20
3.228280
  0
VERTEX
  8
0
  6
CONTINUOUS
 10
6.273960
 20
3.215520
  0
VERTEX
  8
0
  6
CONTINUOUS
 10
6.314000
 20
3.195280
  0
VERTEX
  8
0
  6
CONTINUOUS
 10
6.335560
 20
3.187800
  0
VERTEX
  8
0
  6
CONTINUOUS
 10
6.357560
 20
3.182080
  0
VERTEX
  8
0
  6
CONTINUOUS
 10
6.380880
 20
3.179000
  0
VERTEX
  8
0
  6
CONTINUOUS
 10
6.404200
 20
3.177680
  0
VERTEX
  8
0
  6
CONTINUOUS
 10
6.427520
 20
3.179000
  0
VERTEX
  8
0
  6
CONTINUOUS
 10
6.449960
 20
3.182080
  0
VERTEX
  8
0
  6
CONTINUOUS
 10
6.471960
 20
3.187800
  0
VERTEX
  8
0
  6
CONTINUOUS
 10
6.493520
 20
3.195280
  0
VERTEX
  8
0
  6
CONTINUOUS
 10
6.532680
 20
3.215960
  0
VERTEX
  8
0
  6
CONTINUOUS
 10
6.551160
 20
3.229160
  0
VERTEX
  8
0
  6
CONTINUOUS
 10
6.583280
 20
3.259520
  0
VERTEX
  8
0
  6
CONTINUOUS
 10
6.597360
 20
3.276680
  0
VERTEX
  8
0
  6
CONTINUOUS
 10
6.610120
 20
3.295600
  0
VERTEX
  8
0
  6
CONTINUOUS
 10
6.621120
 20
3.315400
  0
VERTEX
  8
0
  6
CONTINUOUS
 10
6.637400
 20
3.357640
  0
VERTEX
  8
0
  6
CONTINUOUS
 10
6.642680
 20
3.380080
  0
VERTEX
  8
0
  6
CONTINUOUS
 10
6.645760
 20
3.403400
  0
VERTEX
  8
0
  6
CONTINUOUS
 10
7.277600
 20
3.403400
  0
VERTEX
  8
0
  6
CONTINUOUS
 10
7.257800
 20
3.403400
  0
SEQEND
  8
0
  0
TEXT
  8
0
 10
7.557000
 20
3.488760
 40
0.138224
  1
case
 41
1.000000
  7
SN0
 71
     0
 72
     5
 11
7.907505
 21
3.488760
  0
TEXT
  8
0
 10
7.686360
 20
3.297360
 40
0.138224
  1
6
 41
1.000000
  7
SN0
 71
     0
 72
     5
 11
7.779005
 21
3.297360
  0
TEXT
  8
0
 10
5.290120
 20
0.520960
 40
0.138224
  1
BA  6
 41
1.000000
  7
SN0
 71
     0
 72
     5
 11
5.695627
 21
0.520960
  0
TEXT
  8
0
 10
4.995760
 20
0.329120
 40
0.138224
  1
3/4" x 3-9/16"
 41
1.000000
  7
SN0
 71
     0
 72
     5
 11
5.988091
 21
0.329120
  0
SOLID
  8
0
 62
    15
 10
5.395720
 20
1.286120
 11
5.397040
 21
2.031920
 12
5.439280
 22
1.272920
 13
5.440600
 23
2.019160
  0
POLYLINE
  8
0
  6
CONTINUOUS
 66
     1
 40
0.000000
 41
0.000000
  0
VERTEX
  8
0
  6
CONTINUOUS
 10
5.395720
 20
1.286120
  0
VERTEX
  8
0
  6
CONTINUOUS
 10
5.397040
 20
2.031920
  0
VERTEX
  8
0
  6
CONTINUOUS
 10
5.440600
 20
2.019160
  0
VERTEX
  8
0
  6
CONTINUOUS
 10
5.439280
 20
1.272920
  0
VERTEX
  8
0
  6
CONTINUOUS
 10
5.395720
 20
1.286120
  0
SEQEND
  8
0
  0
SOLID
  8
0
 62
    15
 10
7.256480
 20
1.493800
 11
7.257800
 21
2.240040
 12
7.256480
 22
0.727320
 13
7.257800
 23
1.473120
  0
POLYLINE
  8
0
  6
CONTINUOUS
 66
     1
 40
0.000000
 41
0.000000
  0
VERTEX
  8
0
  6
CONTINUOUS
 10
7.256480
 20
1.493800
  0
VERTEX
  8
0
  6
CONTINUOUS
 10
7.257800
 20
2.240040
  0
VERTEX
  8
0
  6
CONTINUOUS
 10
7.257800
 20
1.473120
  0
VERTEX
  8
0
  6
CONTINUOUS
 10
7.256480
 20
0.727320
  0
VERTEX
  8
0
  6
CONTINUOUS
 10
7.256480
 20
1.493800
  0
SEQEND
  8
0
  0
SOLID
  8
0
 62
    15
 10
3.725920
 20
1.493800
 11
3.726800
 21
2.240040
 12
4.365680
 22
1.493800
 13
4.367000
 23
2.240040
  0
POLYLINE
  8
0
  6
CONTINUOUS
 66
     1
 40
0.000000
 41
0.000000
  0
VERTEX
  8
0
  6
CONTINUOUS
 10
3.725920
 20
1.493800
  0
VERTEX
  8
0
  6
CONTINUOUS
 10
3.726800
 20
2.240040
  0
VERTEX
  8
0
  6
CONTINUOUS
 10
4.367000
 20
2.240040
  0
VERTEX
  8
0
  6
CONTINUOUS
 10
4.365680
 20
1.493800
  0
VERTEX
  8
0
  6
CONTINUOUS
 10
3.725920
 20
1.493800
  0
SEQEND
  8
0
  0
SOLID
  8
0
 62
    15
 10
4.365680
 20
1.493800
 11
4.367000
 21
2.240040
 12
4.373600
 22
1.491160
 13
4.374920
 23
2.237400
  0
POLYLINE
  8
0
  6
CONTINUOUS
 66
     1
 40
0.000000
 41
0.000000
  0
VERTEX
  8
0
  6
CONTINUOUS
 10
4.365680
 20
1.493800
  0
VERTEX
  8
0
  6
CONTINUOUS
 10
4.367000
 20
2.240040
  0
VERTEX
  8
0
  6
CONTINUOUS
 10
4.374920
 20
2.237400
  0
VERTEX
  8
0
  6
CONTINUOUS
 10
4.373600
 20
1.491160
  0
VERTEX
  8
0
  6
CONTINUOUS
 10
4.365680
 20
1.493800
  0
SEQEND
  8
0
  0
SOLID
  8
0
 62
    15
 10
4.373600
 20
1.491160
 11
4.374920
 21
2.237400
 12
4.381960
 22
1.445840
 13
4.383280
 23
2.192080
  0
POLYLINE
  8
0
  6
CONTINUOUS
 66
     1
 40
0.000000
 41
0.000000
  0
VERTEX
  8
0
  6
CONTINUOUS
 10
4.373600
 20
1.491160
  0
VERTEX
  8
0
  6
CONTINUOUS
 10
4.374920
 20
2.237400
  0
VERTEX
  8
0
  6
CONTINUOUS
 10
4.383280
 20
2.192080
  0
VERTEX
  8
0
  6
CONTINUOUS
 10
4.381960
 20
1.445840
  0
VERTEX
  8
0
  6
CONTINUOUS
 10
4.373600
 20
1.491160
  0
SEQEND
  8
0
  0
SOLID
  8
0
 62
    15
 10
4.381960
 20
1.445840
 11
4.383280
 21
2.192080
 12
4.398680
 22
1.404040
 13
4.399560
 23
2.150280
  0
POLYLINE
  8
0
  6
CONTINUOUS
 66
     1
 40
0.000000
 41
0.000000
  0
VERTEX
  8
0
  6
CONTINUOUS
 10
4.381960
 20
1.445840
  0
VERTEX
  8
0
  6
CONTINUOUS
 10
4.383280
 20
2.192080
  0
VERTEX
  8
0
  6
CONTINUOUS
 10
4.399560
 20
2.150280
  0
VERTEX
  8
0
  6
CONTINUOUS
 10
4.398680
 20
1.404040
  0
VERTEX
  8
0
  6
CONTINUOUS
 10
4.381960
 20
1.445840
  0
SEQEND
  8
0
  0
SOLID
  8
0
 62
    15
 10
4.398680
 20
1.404040
 11
4.399560
 21
2.150280
 12
4.422440
 22
1.366200
 13
4.423320
 23
2.112440
  0
POLYLINE
  8
0
  6
CONTINUOUS
 66
     1
 40
0.000000
 41
0.000000
  0
VERTEX
  8
0
  6
CONTINUOUS
 10
4.398680
 20
1.404040
  0
VERTEX
  8
0
  6
CONTINUOUS
 10
4.399560
 20
2.150280
  0
VERTEX
  8
0
  6
CONTINUOUS
 10
4.423320
 20
2.112440
  0
VERTEX
  8
0
  6
CONTINUOUS
 10
4.422440
 20
1.366200
  0
VERTEX
  8
0
  6
CONTINUOUS
 10
4.398680
 20
1.404040
  0
SEQEND
  8
0
  0
SOLID
  8
0
 62
    15
 10
4.422440
 20
1.366200
 11
4.423320
 21
2.112440
 12
4.452360
 22
1.333200
 13
4.453240
 23
2.079440
  0
POLYLINE
  8
0
  6
CONTINUOUS
 66
     1
 40
0.000000
 41
0.000000
  0
VERTEX
  8
0
  6
CONTINUOUS
 10
4.422440
 20
1.366200
  0
VERTEX
  8
0
  6
CONTINUOUS
 10
4.423320
 20
2.112440
  0
VERTEX
  8
0
  6
CONTINUOUS
 10
4.453240
 20
2.079440
  0
VERTEX
  8
0
  6
CONTINUOUS
 10
4.452360
 20
1.333200
  0
VERTEX
  8
0
  6
CONTINUOUS
 10
4.422440
 20
1.366200
  0
SEQEND
  8
0
  0
SOLID
  8
0
 62
    15
 10
4.452360
 20
1.333200
 11
4.453240
 21
2.079440
 12
4.487560
 22
1.306360
 13
4.488880
 23
2.052160
  0
POLYLINE
  8
0
  6
CONTINUOUS
 66
     1
 40
0.000000
 41
0.000000
  0
VERTEX
  8
0
  6
CONTINUOUS
 10
4.452360
 20
1.333200
  0
VERTEX
  8
0
  6
CONTINUOUS
 10
4.453240
 20
2.079440
  0
VERTEX
  8
0
  6
CONTINUOUS
 10
4.488880
 20
2.052160
  0
VERTEX
  8
0
  6
CONTINUOUS
 10
4.487560
 20
1.306360
  0
VERTEX
  8
0
  6
CONTINUOUS
 10
4.452360
 20
1.333200
  0
SEQEND
  8
0
  0
SOLID
  8
0
 62
    15
 10
4.487560
 20
1.306360
 11
4.488880
 21
2.052160
 12
4.527600
 22
1.286120
 13
4.528920
 23
2.031920
  0
POLYLINE
  8
0
  6
CONTINUOUS
 66
     1
 40
0.000000
 41
0.000000
  0
VERTEX
  8
0
  6
CONTINUOUS
 10
4.487560
 20
1.306360
  0
VERTEX
  8
0
  6
CONTINUOUS
 10
4.488880
 20
2.052160
  0
VERTEX
  8
0
  6
CONTINUOUS
 10
4.528920
 20
2.031920
  0
VERTEX
  8
0
  6
CONTINUOUS
 10
4.527600
 20
1.286120
  0
VERTEX
  8
0
  6
CONTINUOUS
 10
4.487560
 20
1.306360
  0
SEQEND
  8
0
  0
SOLID
  8
0
 62
    15
 10
4.527600
 20
1.286120
 11
4.528920
 21
2.031920
 12
4.571160
 22
1.272920
 13
4.572480
 23
2.019160
  0
POLYLINE
  8
0
  6
CONTINUOUS
 66
     1
 40
0.000000
 41
0.000000
  0
VERTEX
  8
0
  6
CONTINUOUS
 10
4.527600
 20
1.286120
  0
VERTEX
  8
0
  6
CONTINUOUS
 10
4.528920
 20
2.031920
  0
VERTEX
  8
0
  6
CONTINUOUS
 10
4.572480
 20
2.019160
  0
VERTEX
  8
0
  6
CONTINUOUS
 10
4.571160
 20
1.272920
  0
VERTEX
  8
0
  6
CONTINUOUS
 10
4.527600
 20
1.286120
  0
SEQEND
  8
0
  0
SOLID
  8
0
 62
    15
 10
4.571160
 20
1.272920
 11
4.572480
 21
2.019160
 12
4.617800
 22
1.268520
 13
4.618680
 23
2.014760
  0
POLYLINE
  8
0
  6
CONTINUOUS
 66
     1
 40
0.000000
 41
0.000000
  0
VERTEX
  8
0
  6
CONTINUOUS
 10
4.571160
 20
1.272920
  0
VERTEX
  8
0
  6
CONTINUOUS
 10
4.572480
 20
2.019160
  0
VERTEX
  8
0
  6
CONTINUOUS
 10
4.618680
 20
2.014760
  0
VERTEX
  8
0
  6
CONTINUOUS
 10
4.617800
 20
1.268520
  0
VERTEX
  8
0
  6
CONTINUOUS
 10
4.571160
 20
1.272920
  0
SEQEND
  8
0
  0
SOLID
  8
0
 62
    15
 10
4.617800
 20
1.268520
 11
4.618680
 21
2.014760
 12
4.663560
 22
1.272920
 13
4.664880
 23
2.019160
  0
POLYLINE
  8
0
  6
CONTINUOUS
 66
     1
 40
0.000000
 41
0.000000
  0
VERTEX
  8
0
  6
CONTINUOUS
 10
4.617800
 20
1.268520
  0
VERTEX
  8
0
  6
CONTINUOUS
 10
4.618680
 20
2.014760
  0
VERTEX
  8
0
  6
CONTINUOUS
 10
4.664880
 20
2.019160
  0
VERTEX
  8
0
  6
CONTINUOUS
 10
4.663560
 20
1.272920
  0
VERTEX
  8
0
  6
CONTINUOUS
 10
4.617800
 20
1.268520
  0
SEQEND
  8
0
  0
SOLID
  8
0
 62
    15
 10
4.663560
 20
1.272920
 11
4.664880
 21
2.019160
 12
4.706680
 22
1.286120
 13
4.708000
 23
2.032360
  0
POLYLINE
  8
0
  6
CONTINUOUS
 66
     1
 40
0.000000
 41
0.000000
  0
VERTEX
  8
0
  6
CONTINUOUS
 10
4.663560
 20
1.272920
  0
VERTEX
  8
0
  6
CONTINUOUS
 10
4.664880
 20
2.019160
  0
VERTEX
  8
0
  6
CONTINUOUS
 10
4.708000
 20
2.032360
  0
VERTEX
  8
0
  6
CONTINUOUS
 10
4.706680
 20
1.286120
  0
VERTEX
  8
0
  6
CONTINUOUS
 10
4.663560
 20
1.272920
  0
SEQEND
  8
0
  0
SOLID
  8
0
 62
    15
 10
4.706680
 20
1.286120
 11
4.708000
 21
2.032360
 12
4.746280
 22
1.306800
 13
4.747600
 23
2.053040
  0
POLYLINE
  8
0
  6
CONTINUOUS
 66
     1
 40
0.000000
 41
0.000000
  0
VERTEX
  8
0
  6
CONTINUOUS
 10
4.706680
 20
1.286120
  0
VERTEX
  8
0
  6
CONTINUOUS
 10
4.708000
 20
2.032360
  0
VERTEX
  8
0
  6
CONTINUOUS
 10
4.747600
 20
2.053040
  0
VERTEX
  8
0
  6
CONTINUOUS
 10
4.746280
 20
1.306800
  0
VERTEX
  8
0
  6
CONTINUOUS
 10
4.706680
 20
1.286120
  0
SEQEND
  8
0
  0
SOLID
  8
0
 62
    15
 10
4.746280
 20
1.306800
 11
4.747600
 21
2.053040
 12
4.781480
 22
1.334080
 13
4.782360
 23
2.080320
  0
POLYLINE
  8
0
  6
CONTINUOUS
 66
     1
 40
0.000000
 41
0.000000
  0
VERTEX
  8
0
  6
CONTINUOUS
 10
4.746280
 20
1.306800
  0
VERTEX
  8
0
  6
CONTINUOUS
 10
4.747600
 20
2.053040
  0
VERTEX
  8
0
  6
CONTINUOUS
 10
4.782360
 20
2.080320
  0
VERTEX
  8
0
  6
CONTINUOUS
 10
4.781480
 20
1.334080
  0
VERTEX
  8
0
  6
CONTINUOUS
 10
4.746280
 20
1.306800
  0
SEQEND
  8
0
  0
SOLID
  8
0
 62
    15
 10
4.781480
 20
1.334080
 11
4.782360
 21
2.080320
 12
4.810960
 22
1.367520
 13
4.812280
 23
2.113320
  0
POLYLINE
  8
0
  6
CONTINUOUS
 66
     1
 40
0.000000
 41
0.000000
  0
VERTEX
  8
0
  6
CONTINUOUS
 10
4.781480
 20
1.334080
  0
VERTEX
  8
0
  6
CONTINUOUS
 10
4.782360
 20
2.080320
  0
VERTEX
  8
0
  6
CONTINUOUS
 10
4.812280
 20
2.113320
  0
VERTEX
  8
0
  6
CONTINUOUS
 10
4.810960
 20
1.367520
  0
VERTEX
  8
0
  6
CONTINUOUS
 10
4.781480
 20
1.334080
  0
SEQEND
  8
0
  0
SOLID
  8
0
 62
    15
 10
4.810960
 20
1.367520
 11
4.812280
 21
2.113320
 12
4.834720
 22
1.405800
 13
4.835600
 23
2.151600
  0
POLYLINE
  8
0
  6
CONTINUOUS
 66
     1
 40
0.000000
 41
0.000000
  0
VERTEX
  8
0
  6
CONTINUOUS
 10
4.810960
 20
1.367520
  0
VERTEX
  8
0
  6
CONTINUOUS
 10
4.812280
 20
2.113320
  0
VERTEX
  8
0
  6
CONTINUOUS
 10
4.835600
 20
2.151600
  0
VERTEX
  8
0
  6
CONTINUOUS
 10
4.834720
 20
1.405800
  0
VERTEX
  8
0
  6
CONTINUOUS
 10
4.810960
 20
1.367520
  0
SEQEND
  8
0
  0
SOLID
  8
0
 62
    15
 10
4.834720
 20
1.405800
 11
4.835600
 21
2.151600
 12
4.851000
 22
1.448040
 13
4.851880
 23
2.194280
  0
POLYLINE
  8
0
  6
CONTINUOUS
 66
     1
 40
0.000000
 41
0.000000
  0
VERTEX
  8
0
  6
CONTINUOUS
 10
4.834720
 20
1.405800
  0
VERTEX
  8
0
  6
CONTINUOUS
 10
4.835600
 20
2.151600
  0
VERTEX
  8
0
  6
CONTINUOUS
 10
4.851880
 20
2.194280
  0
VERTEX
  8
0
  6
CONTINUOUS
 10
4.851000
 20
1.448040
  0
VERTEX
  8
0
  6
CONTINUOUS
 10
4.834720
 20
1.405800
  0
SEQEND
  8
0
  0
SOLID
  8
0
 62
    15
 10
4.851000
 20
1.448040
 11
4.851880
 21
2.194280
 12
4.858920
 22
1.493800
 13
4.860240
 23
2.240040
  0
POLYLINE
  8
0
  6
CONTINUOUS
 66
     1
 40
0.000000
 41
0.000000
  0
VERTEX
  8
0
  6
CONTINUOUS
 10
4.851000
 20
1.448040
  0
VERTEX
  8
0
  6
CONTINUOUS
 10
4.851880
 20
2.194280
  0
VERTEX
  8
0
  6
CONTINUOUS
 10
4.860240
 20
2.240040
  0
VERTEX
  8
0
  6
CONTINUOUS
 10
4.858920
 20
1.493800
  0
VERTEX
  8
0
  6
CONTINUOUS
 10
4.851000
 20
1.448040
  0
SEQEND
  8
0
  0
SOLID
  8
0
 62
    15
 10
4.858920
 20
1.493800
 11
4.860240
 21
2.240040
 12
5.229840
 22
1.493800
 13
5.230720
 23
2.240040
  0
POLYLINE
  8
0
  6
CONTINUOUS
 66
     1
 40
0.000000
 41
0.000000
  0
VERTEX
  8
0
  6
CONTINUOUS
 10
4.858920
 20
1.493800
  0
VERTEX
  8
0
  6
CONTINUOUS
 10
4.860240
 20
2.240040
  0
VERTEX
  8
0
  6
CONTINUOUS
 10
5.230720
 20
2.240040
  0
VERTEX
  8
0
  6
CONTINUOUS
 10
5.229840
 20
1.493800
  0
VERTEX
  8
0
  6
CONTINUOUS
 10
4.858920
 20
1.493800
  0
SEQEND
  8
0
  0
SOLID
  8
0
 62
    15
 10
5.229840
 20
1.493800
 11
5.230720
 21
2.240040
 12
5.241720
 22
1.491160
 13
5.243040
 23
2.237400
  0
POLYLINE
  8
0
  6
CONTINUOUS
 66
     1
 40
0.000000
 41
0.000000
  0
VERTEX
  8
0
  6
CONTINUOUS
 10
5.229840
 20
1.493800
  0
VERTEX
  8
0
  6
CONTINUOUS
 10
5.230720
 20
2.240040
  0
VERTEX
  8
0
  6
CONTINUOUS
 10
5.243040
 20
2.237400
  0
VERTEX
  8
0
  6
CONTINUOUS
 10
5.241720
 20
1.491160
  0
VERTEX
  8
0
  6
CONTINUOUS
 10
5.229840
 20
1.493800
  0
SEQEND
  8
0
  0
SOLID
  8
0
 62
    15
 10
5.241720
 20
1.491160
 11
5.243040
 21
2.237400
 12
5.250080
 22
1.445840
 13
5.251400
 23
2.192080
  0
POLYLINE
  8
0
  6
CONTINUOUS
 66
     1
 40
0.000000
 41
0.000000
  0
VERTEX
  8
0
  6
CONTINUOUS
 10
5.241720
 20
1.491160
  0
VERTEX
  8
0
  6
CONTINUOUS
 10
5.243040
 20
2.237400
  0
VERTEX
  8
0
  6
CONTINUOUS
 10
5.251400
 20
2.192080
  0
VERTEX
  8
0
  6
CONTINUOUS
 10
5.250080
 20
1.445840
  0
VERTEX
  8
0
  6
CONTINUOUS
 10
5.241720
 20
1.491160
  0
SEQEND
  8
0
  0
SOLID
  8
0
 62
    15
 10
5.250080
 20
1.445840
 11
5.251400
 21
2.192080
 12
5.266360
 22
1.404040
 13
5.267680
 23
2.150280
  0
POLYLINE
  8
0
  6
CONTINUOUS
 66
     1
 40
0.000000
 41
0.000000
  0
VERTEX
  8
0
  6
CONTINUOUS
 10
5.250080
 20
1.445840
  0
VERTEX
  8
0
  6
CONTINUOUS
 10
5.251400
 20
2.192080
  0
VERTEX
  8
0
  6
CONTINUOUS
 10
5.267680
 20
2.150280
  0
VERTEX
  8
0
  6
CONTINUOUS
 10
5.266360
 20
1.404040
  0
VERTEX
  8
0
  6
CONTINUOUS
 10
5.250080
 20
1.445840
  0
SEQEND
  8
0
  0
SOLID
  8
0
 62
    15
 10
5.266360
 20
1.404040
 11
5.267680
 21
2.150280
 12
5.290120
 22
1.366200
 13
5.291440
 23
2.112440
  0
POLYLINE
  8
0
  6
CONTINUOUS
 66
     1
 40
0.000000
 41
0.000000
  0
VERTEX
  8
0
  6
CONTINUOUS
 10
5.266360
 20
1.404040
  0
VERTEX
  8
0
  6
CONTINUOUS
 10
5.267680
 20
2.150280
  0
VERTEX
  8
0
  6
CONTINUOUS
 10
5.291440
 20
2.112440
  0
VERTEX
  8
0
  6
CONTINUOUS
 10
5.290120
 20
1.366200
  0
VERTEX
  8
0
  6
CONTINUOUS
 10
5.266360
 20
1.404040
  0
SEQEND
  8
0
  0
SOLID
  8
0
 62
    15
 10
5.290120
 20
1.366200
 11
5.291440
 21
2.112440
 12
5.320040
 22
1.333200
 13
5.321360
 23
2.079440
  0
POLYLINE
  8
0
  6
CONTINUOUS
 66
     1
 40
0.000000
 41
0.000000
  0
VERTEX
  8
0
  6
CONTINUOUS
 10
5.290120
 20
1.366200
  0
VERTEX
  8
0
  6
CONTINUOUS
 10
5.291440
 20
2.112440
  0
VERTEX
  8
0
  6
CONTINUOUS
 10
5.321360
 20
2.079440
  0
VERTEX
  8
0
  6
CONTINUOUS
 10
5.320040
 20
1.333200
  0
VERTEX
  8
0
  6
CONTINUOUS
 10
5.290120
 20
1.366200
  0
SEQEND
  8
0
  0
SOLID
  8
0
 62
    15
 10
5.320040
 20
1.333200
 11
5.321360
 21
2.079440
 12
5.355680
 22
1.306360
 13
5.357000
 23
2.052160
  0
POLYLINE
  8
0
  6
CONTINUOUS
 66
     1
 40
0.000000
 41
0.000000
  0
VERTEX
  8
0
  6
CONTINUOUS
 10
5.320040
 20
1.333200
  0
VERTEX
  8
0
  6
CONTINUOUS
 10
5.321360
 20
2.079440
  0
VERTEX
  8
0
  6
CONTINUOUS
 10
5.357000
 20
2.052160
  0
VERTEX
  8
0
  6
CONTINUOUS
 10
5.355680
 20
1.306360
  0
VERTEX
  8
0
  6
CONTINUOUS
 10
5.320040
 20
1.333200
  0
SEQEND
  8
0
  0
SOLID
  8
0
 62
    15
 10
5.355680
 20
1.306360
 11
5.357000
 21
2.052160
 12
5.395720
 22
1.286120
 13
5.397040
 23
2.031920
  0
POLYLINE
  8
0
  6
CONTINUOUS
 66
     1
 40
0.000000
 41
0.000000
  0
VERTEX
  8
0
  6
CONTINUOUS
 10
5.355680
 20
1.306360
  0
VERTEX
  8
0
  6
CONTINUOUS
 10
5.357000
 20
2.052160
  0
VERTEX
  8
0
  6
CONTINUOUS
 10
5.397040
 20
2.031920
  0
VERTEX
  8
0
  6
CONTINUOUS
 10
5.395720
 20
1.286120
  0
VERTEX
  8
0
  6
CONTINUOUS
 10
5.355680
 20
1.306360
  0
SEQEND
  8
0
  0
SOLID
  8
0
 62
    15
 10
7.227000
 20
1.493800
 11
7.228320
 21
2.240040
 12
7.256480
 22
1.493800
 13
7.257800
 23
2.240040
  0
POLYLINE
  8
0
  6
CONTINUOUS
 66
     1
 40
0.000000
 41
0.000000
  0
VERTEX
  8
0
  6
CONTINUOUS
 10
7.227000
 20
1.493800
  0
VERTEX
  8
0
  6
CONTINUOUS
 10
7.228320
 20
2.240040
  0
VERTEX
  8
0
  6
CONTINUOUS
 10
7.257800
 20
2.240040
  0
VERTEX
  8
0
  6
CONTINUOUS
 10
7.256480
 20
1.493800
  0
VERTEX
  8
0
  6
CONTINUOUS
 10
7.227000
 20
1.493800
  0
SEQEND
  8
0
  0
SOLID
  8
0
 62
    15
 10
5.439280
 20
1.272920
 11
5.440600
 21
2.019160
 12
5.485920
 22
1.268520
 13
5.486800
 23
2.014760
  0
POLYLINE
  8
0
  6
CONTINUOUS
 66
     1
 40
0.000000
 41
0.000000
  0
VERTEX
  8
0
  6
CONTINUOUS
 10
5.439280
 20
1.272920
  0
VERTEX
  8
0
  6
CONTINUOUS
 10
5.440600
 20
2.019160
  0
VERTEX
  8
0
  6
CONTINUOUS
 10
5.486800
 20
2.014760
  0
VERTEX
  8
0
  6
CONTINUOUS
 10
5.485920
 20
1.268520
  0
VERTEX
  8
0
  6
CONTINUOUS
 10
5.439280
 20
1.272920
  0
SEQEND
  8
0
  0
SOLID
  8
0
 62
    15
 10
5.485920
 20
1.268520
 11
5.486800
 21
2.014760
 12
5.531680
 22
1.272920
 13
5.533000
 23
2.019160
  0
POLYLINE
  8
0
  6
CONTINUOUS
 66
     1
 40
0.000000
 41
0.000000
  0
VERTEX
  8
0
  6
CONTINUOUS
 10
5.485920
 20
1.268520
  0
VERTEX
  8
0
  6
CONTINUOUS
 10
5.486800
 20
2.014760
  0
VERTEX
  8
0
  6
CONTINUOUS
 10
5.533000
 20
2.019160
  0
VERTEX
  8
0
  6
CONTINUOUS
 10
5.531680
 20
1.272920
  0
VERTEX
  8
0
  6
CONTINUOUS
 10
5.485920
 20
1.268520
  0
SEQEND
  8
0
  0
SOLID
  8
0
 62
    15
 10
5.531680
 20
1.272920
 11
5.533000
 21
2.019160
 12
5.574800
 22
1.286120
 13
5.576120
 23
2.032360
  0
POLYLINE
  8
0
  6
CONTINUOUS
 66
     1
 40
0.000000
 41
0.000000
  0
VERTEX
  8
0
  6
CONTINUOUS
 10
5.531680
 20
1.272920
  0
VERTEX
  8
0
  6
CONTINUOUS
 10
5.533000
 20
2.019160
  0
VERTEX
  8
0
  6
CONTINUOUS
 10
5.576120
 20
2.032360
  0
VERTEX
  8
0
  6
CONTINUOUS
 10
5.574800
 20
1.286120
  0
VERTEX
  8
0
  6
CONTINUOUS
 10
5.531680
 20
1.272920
  0
SEQEND
  8
0
  0
SOLID
  8
0
 62
    15
 10
5.574800
 20
1.286120
 11
5.576120
 21
2.032360
 12
5.614400
 22
1.306800
 13
5.615720
 23
2.053040
  0
POLYLINE
  8
0
  6
CONTINUOUS
 66
     1
 40
0.000000
 41
0.000000
  0
VERTEX
  8
0
  6
CONTINUOUS
 10
5.574800
 20
1.286120
  0
VERTEX
  8
0
  6
CONTINUOUS
 10
5.576120
 20
2.032360
  0
VERTEX
  8
0
  6
CONTINUOUS
 10
5.615720
 20
2.053040
  0
VERTEX
  8
0
  6
CONTINUOUS
 10
5.614400
 20
1.306800
  0
VERTEX
  8
0
  6
CONTINUOUS
 10
5.574800
 20
1.286120
  0
SEQEND
  8
0
  0
SOLID
  8
0
 62
    15
 10
5.614400
 20
1.306800
 11
5.615720
 21
2.053040
 12
5.649600
 22
1.334080
 13
5.650480
 23
2.080320
  0
POLYLINE
  8
0
  6
CONTINUOUS
 66
     1
 40
0.000000
 41
0.000000
  0
VERTEX
  8
0
  6
CONTINUOUS
 10
5.614400
 20
1.306800
  0
VERTEX
  8
0
  6
CONTINUOUS
 10
5.615720
 20
2.053040
  0
VERTEX
  8
0
  6
CONTINUOUS
 10
5.650480
 20
2.080320
  0
VERTEX
  8
0
  6
CONTINUOUS
 10
5.649600
 20
1.334080
  0
VERTEX
  8
0
  6
CONTINUOUS
 10
5.614400
 20
1.306800
  0
SEQEND
  8
0
  0
SOLID
  8
0
 62
    15
 10
5.649600
 20
1.334080
 11
5.650480
 21
2.080320
 12
5.679080
 22
1.367520
 13
5.680400
 23
2.113320
  0
POLYLINE
  8
0
  6
CONTINUOUS
 66
     1
 40
0.000000
 41
0.000000
  0
VERTEX
  8
0
  6
CONTINUOUS
 10
5.649600
 20
1.334080
  0
VERTEX
  8
0
  6
CONTINUOUS
 10
5.650480
 20
2.080320
  0
VERTEX
  8
0
  6
CONTINUOUS
 10
5.680400
 20
2.113320
  0
VERTEX
  8
0
  6
CONTINUOUS
 10
5.679080
 20
1.367520
  0
VERTEX
  8
0
  6
CONTINUOUS
 10
5.649600
 20
1.334080
  0
SEQEND
  8
0
  0
SOLID
  8
0
 62
    15
 10
5.679080
 20
1.367520
 11
5.680400
 21
2.113320
 12
5.702400
 22
1.405800
 13
5.703720
 23
2.151600
  0
POLYLINE
  8
0
  6
CONTINUOUS
 66
     1
 40
0.000000
 41
0.000000
  0
VERTEX
  8
0
  6
CONTINUOUS
 10
5.679080
 20
1.367520
  0
VERTEX
  8
0
  6
CONTINUOUS
 10
5.680400
 20
2.113320
  0
VERTEX
  8
0
  6
CONTINUOUS
 10
5.703720
 20
2.151600
  0
VERTEX
  8
0
  6
CONTINUOUS
 10
5.702400
 20
1.405800
  0
VERTEX
  8
0
  6
CONTINUOUS
 10
5.679080
 20
1.367520
  0
SEQEND
  8
0
  0
SOLID
  8
0
 62
    15
 10
5.702400
 20
1.405800
 11
5.703720
 21
2.151600
 12
5.718680
 22
1.448040
 13
5.720000
 23
2.194280
  0
POLYLINE
  8
0
  6
CONTINUOUS
 66
     1
 40
0.000000
 41
0.000000
  0
VERTEX
  8
0
  6
CONTINUOUS
 10
5.702400
 20
1.405800
  0
VERTEX
  8
0
  6
CONTINUOUS
 10
5.703720
 20
2.151600
  0
VERTEX
  8
0
  6
CONTINUOUS
 10
5.720000
 20
2.194280
  0
VERTEX
  8
0
  6
CONTINUOUS
 10
5.718680
 20
1.448040
  0
VERTEX
  8
0
  6
CONTINUOUS
 10
5.702400
 20
1.405800
  0
SEQEND
  8
0
  0
SOLID
  8
0
 62
    15
 10
5.718680
 20
1.448040
 11
5.720000
 21
2.194280
 12
5.727040
 22
1.493800
 13
5.728360
 23
2.240040
  0
POLYLINE
  8
0
  6
CONTINUOUS
 66
     1
 40
0.000000
 41
0.000000
  0
VERTEX
  8
0
  6
CONTINUOUS
 10
5.718680
 20
1.448040
  0
VERTEX
  8
0
  6
CONTINUOUS
 10
5.720000
 20
2.194280
  0
VERTEX
  8
0
  6
CONTINUOUS
 10
5.728360
 20
2.240040
  0
VERTEX
  8
0
  6
CONTINUOUS
 10
5.727040
 20
1.493800
  0
VERTEX
  8
0
  6
CONTINUOUS
 10
5.718680
 20
1.448040
  0
SEQEND
  8
0
  0
SOLID
  8
0
 62
    15
 10
5.727040
 20
1.493800
 11
5.728360
 21
2.240040
 12
6.120400
 22
1.493800
 13
6.121720
 23
2.240040
  0
POLYLINE
  8
0
  6
CONTINUOUS
 66
     1
 40
0.000000
 41
0.000000
  0
VERTEX
  8
0
  6
CONTINUOUS
 10
5.727040
 20
1.493800
  0
VERTEX
  8
0
  6
CONTINUOUS
 10
5.728360
 20
2.240040
  0
VERTEX
  8
0
  6
CONTINUOUS
 10
6.121720
 20
2.240040
  0
VERTEX
  8
0
  6
CONTINUOUS
 10
6.120400
 20
1.493800
  0
VERTEX
  8
0
  6
CONTINUOUS
 10
5.727040
 20
1.493800
  0
SEQEND
  8
0
  0
SOLID
  8
0
 62
    15
 10
6.120400
 20
1.493800
 11
6.121720
 21
2.240040
 12
6.129640
 22
1.491160
 13
6.130960
 23
2.237400
  0
POLYLINE
  8
0
  6
CONTINUOUS
 66
     1
 40
0.000000
 41
0.000000
  0
VERTEX
  8
0
  6
CONTINUOUS
 10
6.120400
 20
1.493800
  0
VERTEX
  8
0
  6
CONTINUOUS
 10
6.121720
 20
2.240040
  0
VERTEX
  8
0
  6
CONTINUOUS
 10
6.130960
 20
2.237400
  0
VERTEX
  8
0
  6
CONTINUOUS
 10
6.129640
 20
1.491160
  0
VERTEX
  8
0
  6
CONTINUOUS
 10
6.120400
 20
1.493800
  0
SEQEND
  8
0
  0
SOLID
  8
0
 62
    15
 10
6.129640
 20
1.491160
 11
6.130960
 21
2.237400
 12
6.138000
 22
1.445840
 13
6.139320
 23
2.192080
  0
POLYLINE
  8
0
  6
CONTINUOUS
 66
     1
 40
0.000000
 41
0.000000
  0
VERTEX
  8
0
  6
CONTINUOUS
 10
6.129640
 20
1.491160
  0
VERTEX
  8
0
  6
CONTINUOUS
 10
6.130960
 20
2.237400
  0
VERTEX
  8
0
  6
CONTINUOUS
 10
6.139320
 20
2.192080
  0
VERTEX
  8
0
  6
CONTINUOUS
 10
6.138000
 20
1.445840
  0
VERTEX
  8
0
  6
CONTINUOUS
 10
6.129640
 20
1.491160
  0
SEQEND
  8
0
  0
SOLID
  8
0
 62
    15
 10
6.138000
 20
1.445840
 11
6.139320
 21
2.192080
 12
6.154720
 22
1.404040
 13
6.155600
 23
2.150280
  0
POLYLINE
  8
0
  6
CONTINUOUS
 66
     1
 40
0.000000
 41
0.000000
  0
VERTEX
  8
0
  6
CONTINUOUS
 10
6.138000
 20
1.445840
  0
VERTEX
  8
0
  6
CONTINUOUS
 10
6.139320
 20
2.192080
  0
VERTEX
  8
0
  6
CONTINUOUS
 10
6.155600
 20
2.150280
  0
VERTEX
  8
0
  6
CONTINUOUS
 10
6.154720
 20
1.404040
  0
VERTEX
  8
0
  6
CONTINUOUS
 10
6.138000
 20
1.445840
  0
SEQEND
  8
0
  0
SOLID
  8
0
 62
    15
 10
6.154720
 20
1.404040
 11
6.155600
 21
2.150280
 12
6.178480
 22
1.366200
 13
6.179360
 23
2.112440
  0
POLYLINE
  8
0
  6
CONTINUOUS
 66
     1
 40
0.000000
 41
0.000000
  0
VERTEX
  8
0
  6
CONTINUOUS
 10
6.154720
 20
1.404040
  0
VERTEX
  8
0
  6
CONTINUOUS
 10
6.155600
 20
2.150280
  0
VERTEX
  8
0
  6
CONTINUOUS
 10
6.179360
 20
2.112440
  0
VERTEX
  8
0
  6
CONTINUOUS
 10
6.178480
 20
1.366200
  0
VERTEX
  8
0
  6
CONTINUOUS
 10
6.154720
 20
1.404040
  0
SEQEND
  8
0
  0
SOLID
  8
0
 62
    15
 10
6.178480
 20
1.366200
 11
6.179360
 21
2.112440
 12
6.208400
 22
1.333200
 13
6.209280
 23
2.079440
  0
POLYLINE
  8
0
  6
CONTINUOUS
 66
     1
 40
0.000000
 41
0.000000
  0
VERTEX
  8
0
  6
CONTINUOUS
 10
6.178480
 20
1.366200
  0
VERTEX
  8
0
  6
CONTINUOUS
 10
6.179360
 20
2.112440
  0
VERTEX
  8
0
  6
CONTINUOUS
 10
6.209280
 20
2.079440
  0
VERTEX
  8
0
  6
CONTINUOUS
 10
6.208400
 20
1.333200
  0
VERTEX
  8
0
  6
CONTINUOUS
 10
6.178480
 20
1.366200
  0
SEQEND
  8
0
  0
SOLID
  8
0
 62
    15
 10
6.208400
 20
1.333200
 11
6.209280
 21
2.079440
 12
6.243600
 22
1.306360
 13
6.244920
 23
2.052160
  0
POLYLINE
  8
0
  6
CONTINUOUS
 66
     1
 40
0.000000
 41
0.000000
  0
VERTEX
  8
0
  6
CONTINUOUS
 10
6.208400
 20
1.333200
  0
VERTEX
  8
0
  6
CONTINUOUS
 10
6.209280
 20
2.079440
  0
VERTEX
  8
0
  6
CONTINUOUS
 10
6.244920
 20
2.052160
  0
VERTEX
  8
0
  6
CONTINUOUS
 10
6.243600
 20
1.306360
  0
VERTEX
  8
0
  6
CONTINUOUS
 10
6.208400
 20
1.333200
  0
SEQEND
  8
0
  0
SOLID
  8
0
 62
    15
 10
6.243600
 20
1.306360
 11
6.244920
 21
2.052160
 12
6.283640
 22
1.286120
 13
6.284960
 23
2.031920
  0
POLYLINE
  8
0
  6
CONTINUOUS
 66
     1
 40
0.000000
 41
0.000000
  0
VERTEX
  8
0
  6
CONTINUOUS
 10
6.243600
 20
1.306360
  0
VERTEX
  8
0
  6
CONTINUOUS
 10
6.244920
 20
2.052160
  0
VERTEX
  8
0
  6
CONTINUOUS
 10
6.284960
 20
2.031920
  0
VERTEX
  8
0
  6
CONTINUOUS
 10
6.283640
 20
1.286120
  0
VERTEX
  8
0
  6
CONTINUOUS
 10
6.243600
 20
1.306360
  0
SEQEND
  8
0
  0
SOLID
  8
0
 62
    15
 10
6.283640
 20
1.286120
 11
6.284960
 21
2.031920
 12
6.327200
 22
1.272920
 13
6.328520
 23
2.019160
  0
POLYLINE
  8
0
  6
CONTINUOUS
 66
     1
 40
0.000000
 41
0.000000
  0
VERTEX
  8
0
  6
CONTINUOUS
 10
6.283640
 20
1.286120
  0
VERTEX
  8
0
  6
CONTINUOUS
 10
6.284960
 20
2.031920
  0
VERTEX
  8
0
  6
CONTINUOUS
 10
6.328520
 20
2.019160
  0
VERTEX
  8
0
  6
CONTINUOUS
 10
6.327200
 20
1.272920
  0
VERTEX
  8
0
  6
CONTINUOUS
 10
6.283640
 20
1.286120
  0
SEQEND
  8
0
  0
SOLID
  8
0
 62
    15
 10
6.327200
 20
1.272920
 11
6.328520
 21
2.019160
 12
6.373840
 22
1.268520
 13
6.374720
 23
2.014760
  0
POLYLINE
  8
0
  6
CONTINUOUS
 66
     1
 40
0.000000
 41
0.000000
  0
VERTEX
  8
0
  6
CONTINUOUS
 10
6.327200
 20
1.272920
  0
VERTEX
  8
0
  6
CONTINUOUS
 10
6.328520
 20
2.019160
  0
VERTEX
  8
0
  6
CONTINUOUS
 10
6.374720
 20
2.014760
  0
VERTEX
  8
0
  6
CONTINUOUS
 10
6.373840
 20
1.268520
  0
VERTEX
  8
0
  6
CONTINUOUS
 10
6.327200
 20
1.272920
  0
SEQEND
  8
0
  0
SOLID
  8
0
 62
    15
 10
6.373840
 20
1.268520
 11
6.374720
 21
2.014760
 12
6.419600
 22
1.272920
 13
6.420920
 23
2.019160
  0
POLYLINE
  8
0
  6
CONTINUOUS
 66
     1
 40
0.000000
 41
0.000000
  0
VERTEX
  8
0
  6
CONTINUOUS
 10
6.373840
 20
1.268520
  0
VERTEX
  8
0
  6
CONTINUOUS
 10
6.374720
 20
2.014760
  0
VERTEX
  8
0
  6
CONTINUOUS
 10
6.420920
 20
2.019160
  0
VERTEX
  8
0
  6
CONTINUOUS
 10
6.419600
 20
1.272920
  0
VERTEX
  8
0
  6
CONTINUOUS
 10
6.373840
 20
1.268520
  0
SEQEND
  8
0
  0
SOLID
  8
0
 62
    15
 10
6.419600
 20
1.272920
 11
6.420920
 21
2.019160
 12
6.462720
 22
1.286120
 13
6.464040
 23
2.032360
  0
POLYLINE
  8
0
  6
CONTINUOUS
 66
     1
 40
0.000000
 41
0.000000
  0
VERTEX
  8
0
  6
CONTINUOUS
 10
6.419600
 20
1.272920
  0
VERTEX
  8
0
  6
CONTINUOUS
 10
6.420920
 20
2.019160
  0
VERTEX
  8
0
  6
CONTINUOUS
 10
6.464040
 20
2.032360
  0
VERTEX
  8
0
  6
CONTINUOUS
 10
6.462720
 20
1.286120
  0
VERTEX
  8
0
  6
CONTINUOUS
 10
6.419600
 20
1.272920
  0
SEQEND
  8
0
  0
SOLID
  8
0
 62
    15
 10
6.462720
 20
1.286120
 11
6.464040
 21
2.032360
 12
6.502320
 22
1.306800
 13
6.503640
 23
2.053040
  0
POLYLINE
  8
0
  6
CONTINUOUS
 66
     1
 40
0.000000
 41
0.000000
  0
VERTEX
  8
0
  6
CONTINUOUS
 10
6.462720
 20
1.286120
  0
VERTEX
  8
0
  6
CONTINUOUS
 10
6.464040
 20
2.032360
  0
VERTEX
  8
0
  6
CONTINUOUS
 10
6.503640
 20
2.053040
  0
VERTEX
  8
0
  6
CONTINUOUS
 10
6.502320
 20
1.306800
  0
VERTEX
  8
0
  6
CONTINUOUS
 10
6.462720
 20
1.286120
  0
SEQEND
  8
0
  0
SOLID
  8
0
 62
    15
 10
6.502320
 20
1.306800
 11
6.503640
 21
2.053040
 12
6.537520
 22
1.334080
 13
6.538400
 23
2.080320
  0
POLYLINE
  8
0
  6
CONTINUOUS
 66
     1
 40
0.000000
 41
0.000000
  0
VERTEX
  8
0
  6
CONTINUOUS
 10
6.502320
 20
1.306800
  0
VERTEX
  8
0
  6
CONTINUOUS
 10
6.503640
 20
2.053040
  0
VERTEX
  8
0
  6
CONTINUOUS
 10
6.538400
 20
2.080320
  0
VERTEX
  8
0
  6
CONTINUOUS
 10
6.537520
 20
1.334080
  0
VERTEX
  8
0
  6
CONTINUOUS
 10
6.502320
 20
1.306800
  0
SEQEND
  8
0
  0
SOLID
  8
0
 62
    15
 10
6.537520
 20
1.334080
 11
6.538400
 21
2.080320
 12
6.567000
 22
1.367520
 13
6.568320
 23
2.113320
  0
POLYLINE
  8
0
  6
CONTINUOUS
 66
     1
 40
0.000000
 41
0.000000
  0
VERTEX
  8
0
  6
CONTINUOUS
 10
6.537520
 20
1.334080
  0
VERTEX
  8
0
  6
CONTINUOUS
 10
6.538400
 20
2.080320
  0
VERTEX
  8
0
  6
CONTINUOUS
 10
6.568320
 20
2.113320
  0
VERTEX
  8
0
  6
CONTINUOUS
 10
6.567000
 20
1.367520
  0
VERTEX
  8
0
  6
CONTINUOUS
 10
6.537520
 20
1.334080
  0
SEQEND
  8
0
  0
SOLID
  8
0
 62
    15
 10
6.567000
 20
1.367520
 11
6.568320
 21
2.113320
 12
6.590760
 22
1.405800
 13
6.591640
 23
2.151600
  0
POLYLINE
  8
0
  6
CONTINUOUS
 66
     1
 40
0.000000
 41
0.000000
  0
VERTEX
  8
0
  6
CONTINUOUS
 10
6.567000
 20
1.367520
  0
VERTEX
  8
0
  6
CONTINUOUS
 10
6.568320
 20
2.113320
  0
VERTEX
  8
0
  6
CONTINUOUS
 10
6.591640
 20
2.151600
  0
VERTEX
  8
0
  6
CONTINUOUS
 10
6.590760
 20
1.405800
  0
VERTEX
  8
0
  6
CONTINUOUS
 10
6.567000
 20
1.367520
  0
SEQEND
  8
0
  0
SOLID
  8
0
 62
    15
 10
6.590760
 20
1.405800
 11
6.591640
 21
2.151600
 12
6.606600
 22
1.448040
 13
6.607920
 23
2.194280
  0
POLYLINE
  8
0
  6
CONTINUOUS
 66
     1
 40
0.000000
 41
0.000000
  0
VERTEX
  8
0
  6
CONTINUOUS
 10
6.590760
 20
1.405800
  0
VERTEX
  8
0
  6
CONTINUOUS
 10
6.591640
 20
2.151600
  0
VERTEX
  8
0
  6
CONTINUOUS
 10
6.607920
 20
2.194280
  0
VERTEX
  8
0
  6
CONTINUOUS
 10
6.606600
 20
1.448040
  0
VERTEX
  8
0
  6
CONTINUOUS
 10
6.590760
 20
1.405800
  0
SEQEND
  8
0
  0
SOLID
  8
0
 62
    15
 10
6.606600
 20
1.448040
 11
6.607920
 21
2.194280
 12
6.614960
 22
1.493800
 13
6.616280
 23
2.240040
  0
POLYLINE
  8
0
  6
CONTINUOUS
 66
     1
 40
0.000000
 41
0.000000
  0
VERTEX
  8
0
  6
CONTINUOUS
 10
6.606600
 20
1.448040
  0
VERTEX
  8
0
  6
CONTINUOUS
 10
6.607920
 20
2.194280
  0
VERTEX
  8
0
  6
CONTINUOUS
 10
6.616280
 20
2.240040
  0
VERTEX
  8
0
  6
CONTINUOUS
 10
6.614960
 20
1.493800
  0
VERTEX
  8
0
  6
CONTINUOUS
 10
6.606600
 20
1.448040
  0
SEQEND
  8
0
  0
SOLID
  8
0
 62
    15
 10
6.614960
 20
1.493800
 11
6.616280
 21
2.240040
 12
7.247240
 22
1.493800
 13
7.248120
 23
2.240040
  0
POLYLINE
  8
0
  6
CONTINUOUS
 66
     1
 40
0.000000
 41
0.000000
  0
VERTEX
  8
0
  6
CONTINUOUS
 10
6.614960
 20
1.493800
  0
VERTEX
  8
0
  6
CONTINUOUS
 10
6.616280
 20
2.240040
  0
VERTEX
  8
0
  6
CONTINUOUS
 10
7.248120
 20
2.240040
  0
VERTEX
  8
0
  6
CONTINUOUS
 10
7.247240
 20
1.493800
  0
VERTEX
  8
0
  6
CONTINUOUS
 10
6.614960
 20
1.493800
  0
SEQEND
  8
0
  0
POLYLINE
  8
0
  6
CONTINUOUS
 66
     1
 40
0.000000
 41
0.000000
  0
VERTEX
  8
0
  6
CONTINUOUS
 10
7.227000
 20
1.493800
  0
VERTEX
  8
0
  6
CONTINUOUS
 10
7.256480
 20
1.493800
  0
VERTEX
  8
0
  6
CONTINUOUS
 10
7.256480
 20
0.727320
  0
VERTEX
  8
0
  6
CONTINUOUS
 10
3.725920
 20
0.727320
  0
VERTEX
  8
0
  6
CONTINUOUS
 10
3.725920
 20
1.493800
  0
VERTEX
  8
0
  6
CONTINUOUS
 10
4.365680
 20
1.493800
  0
VERTEX
  8
0
  6
CONTINUOUS
 10
4.373600
 20
1.491160
  0
VERTEX
  8
0
  6
CONTINUOUS
 10
4.381960
 20
1.445840
  0
VERTEX
  8
0
  6
CONTINUOUS
 10
4.398680
 20
1.404040
  0
VERTEX
  8
0
  6
CONTINUOUS
 10
4.422440
 20
1.366200
  0
VERTEX
  8
0
  6
CONTINUOUS
 10
4.452360
 20
1.333200
  0
VERTEX
  8
0
  6
CONTINUOUS
 10
4.487560
 20
1.306360
  0
VERTEX
  8
0
  6
CONTINUOUS
 10
4.527600
 20
1.286120
  0
VERTEX
  8
0
  6
CONTINUOUS
 10
4.571160
 20
1.272920
  0
VERTEX
  8
0
  6
CONTINUOUS
 10
4.617800
 20
1.268520
  0
VERTEX
  8
0
  6
CONTINUOUS
 10
4.663560
 20
1.272920
  0
VERTEX
  8
0
  6
CONTINUOUS
 10
4.706680
 20
1.286120
  0
VERTEX
  8
0
  6
CONTINUOUS
 10
4.746280
 20
1.306800
  0
VERTEX
  8
0
  6
CONTINUOUS
 10
4.781480
 20
1.334080
  0
VERTEX
  8
0
  6
CONTINUOUS
 10
4.810960
 20
1.367520
  0
VERTEX
  8
0
  6
CONTINUOUS
 10
4.834720
 20
1.405800
  0
VERTEX
  8
0
  6
CONTINUOUS
 10
4.851000
 20
1.448040
  0
VERTEX
  8
0
  6
CONTINUOUS
 10
4.858920
 20
1.493800
  0
VERTEX
  8
0
  6
CONTINUOUS
 10
5.229840
 20
1.493800
  0
VERTEX
  8
0
  6
CONTINUOUS
 10
5.241720
 20
1.491160
  0
VERTEX
  8
0
  6
CONTINUOUS
 10
5.250080
 20
1.445840
  0
VERTEX
  8
0
  6
CONTINUOUS
 10
5.266360
 20
1.404040
  0
VERTEX
  8
0
  6
CONTINUOUS
 10
5.290120
 20
1.366200
  0
VERTEX
  8
0
  6
CONTINUOUS
 10
5.320040
 20
1.333200
  0
VERTEX
  8
0
  6
CONTINUOUS
 10
5.355680
 20
1.306360
  0
VERTEX
  8
0
  6
CONTINUOUS
 10
5.395720
 20
1.286120
  0
VERTEX
  8
0
  6
CONTINUOUS
 10
5.439280
 20
1.272920
  0
VERTEX
  8
0
  6
CONTINUOUS
 10
5.485920
 20
1.268520
  0
VERTEX
  8
0
  6
CONTINUOUS
 10
5.531680
 20
1.272920
  0
VERTEX
  8
0
  6
CONTINUOUS
 10
5.574800
 20
1.286120
  0
VERTEX
  8
0
  6
CONTINUOUS
 10
5.614400
 20
1.306800
  0
VERTEX
  8
0
  6
CONTINUOUS
 10
5.649600
 20
1.334080
  0
VERTEX
  8
0
  6
CONTINUOUS
 10
5.679080
 20
1.367520
  0
VERTEX
  8
0
  6
CONTINUOUS
 10
5.702400
 20
1.405800
  0
VERTEX
  8
0
  6
CONTINUOUS
 10
5.718680
 20
1.448040
  0
VERTEX
  8
0
  6
CONTINUOUS
 10
5.727040
 20
1.493800
  0
VERTEX
  8
0
  6
CONTINUOUS
 10
6.120400
 20
1.493800
  0
VERTEX
  8
0
  6
CONTINUOUS
 10
6.129640
 20
1.491160
  0
VERTEX
  8
0
  6
CONTINUOUS
 10
6.138000
 20
1.445840
  0
VERTEX
  8
0
  6
CONTINUOUS
 10
6.154720
 20
1.404040
  0
VERTEX
  8
0
  6
CONTINUOUS
 10
6.178480
 20
1.366200
  0
VERTEX
  8
0
  6
CONTINUOUS
 10
6.208400
 20
1.333200
  0
VERTEX
  8
0
  6
CONTINUOUS
 10
6.243600
 20
1.306360
  0
VERTEX
  8
0
  6
CONTINUOUS
 10
6.283640
 20
1.286120
  0
VERTEX
  8
0
  6
CONTINUOUS
 10
6.327200
 20
1.272920
  0
VERTEX
  8
0
  6
CONTINUOUS
 10
6.373840
 20
1.268520
  0
VERTEX
  8
0
  6
CONTINUOUS
 10
6.419600
 20
1.272920
  0
VERTEX
  8
0
  6
CONTINUOUS
 10
6.462720
 20
1.286120
  0
VERTEX
  8
0
  6
CONTINUOUS
 10
6.502320
 20
1.306800
  0
VERTEX
  8
0
  6
CONTINUOUS
 10
6.537520
 20
1.334080
  0
VERTEX
  8
0
  6
CONTINUOUS
 10
6.567000
 20
1.367520
  0
VERTEX
  8
0
  6
CONTINUOUS
 10
6.590760
 20
1.405800
  0
VERTEX
  8
0
  6
CONTINUOUS
 10
6.606600
 20
1.448040
  0
VERTEX
  8
0
  6
CONTINUOUS
 10
6.614960
 20
1.493800
  0
VERTEX
  8
0
  6
CONTINUOUS
 10
7.247240
 20
1.493800
  0
VERTEX
  8
0
  6
CONTINUOUS
 10
7.227000
 20
1.493800
  0
SEQEND
  8
0
  0
ENDSEC
  0
EOF
