  0
SECTION
  2
HEADER
  9
$ACADVER
  1
AC1006
  9
$EXTMIN
 10
2.545400
 20
0.341880
  9
$EXTMAX
 10
7.850040
 20
5.438400
  9
$LTSCALE
 40
0.044000
  9
$PDMODE
 70
    35
  9
$PDSIZE
 40
0.035200
  0
ENDSEC
  0
SECTION
  2
TABLES
  0
TABLE
  2
LTYPE
 70
     9
  0
LTYPE
  2
CONTINUOUS
 70
    64
  3
Solid line
 72
    65
 73
     0
 40
0.000000
  0
LTYPE
  2
DASHED
 70
    64
  3
__ __ __ __ __ __ __ __ __ __ __ __ __ __ __
 72
    65
 73
     2
 40
0.000330
 49
0.000220
 49
-0.000110
  0
LTYPE
  2
HIDDEN
 70
    64
  3
 _ _ _ _ _ _ _ _ _ _ _ _ _ _ _ _ _ _ _ _ _ _
 72
    65
 73
     2
 40
0.000165
 49
0.000110
 49
-0.000055
  0
LTYPE
  2
CENTER
 70
    64
  3
____ _ ____ _ ____ _ ____ _ ____ _ ____ _ ____
 72
    65
 73
     4
 40
0.000880
 49
0.000550
 49
-0.000110
 49
0.000110
 49
-0.000110
  0
LTYPE
  2
PHANTOM
 70
    64
  3
_____ _ _ _____ _ _ _____ _ _ _____ _ _ ____
 72
    65
 73
     6
 40
0.001100
 49
0.000550
 49
-0.000110
 49
0.000110
 49
-0.000110
 49
0.000110
 49
-0.000110
  0
LTYPE
  2
DOT
 70
    64
  3
...............................................
 72
    65
 73
     2
 40
0.000110
 49
0.000000
 49
-0.000110
  0
LTYPE
  2
DASHDOT
 70
    64
  3
__ . __ . __ . __ . __ . __ . __ . __ . __ . __
 72
    65
 73
     4
 40
0.000440
 49
0.000220
 49
-0.000110
 49
0.000000
 49
-0.000110
  0
LTYPE
  2
BORDER
 70
    64
  3
__ __ . __ __ . __ __ . __ __ . __ __ . __ __
 72
    65
 73
     6
 40
0.000770
 49
0.000220
 49
-0.000110
 49
0.000220
 49
-0.000110
 49
0.000000
 49
-0.000110
  0
LTYPE
  2
DIVIDE
 70
    64
  3
__ . . __ . . __ . . __ . . __ . . __ . . __
 72
    65
 73
     6
 40
0.000550
 49
0.000220
 49
-0.000110
 49
0.000000
 49
-0.000110
 49
0.000000
 49
-0.000110
  0
LTYPE
  2
DOTDOT
 70
    64
  3
 . .  . .  . .  . .  . .  . . 
 72
    65
 73
     5
 40
0.000242
 49
-0.000110
 49
0.000000
 49
-0.000110
 49
0.000000
 49
-0.000110
  0
ENDTAB
  0
TABLE
  2
STYLE
 70
     2
  0
STYLE
 70
     0
  2
SN0
 40
0.000000
 41
0.000440
 50
0.000000
 71
     0
 42
0.000000
  3
ROMAND
  0
STYLE
 70
    68
  2
SV0
 40
0.000000
 41
0.000440
 50
0.000000
 71
     0
 42
0.000000
  3
ROMAND
  0
ENDTAB
  0
TABLE
  2
LAYER
 70
     3
  0
LAYER
  2
FOREGROUND
 70
    64
 62
     7
  6
CONTINUOUS
  0
LAYER
  2
BACKGROUND
 70
    65
 62
    -7
  6
CONTINUOUS
  0
LAYER
  2
0
 70
    64
 62
     7
  6
CONTINUOUS
  0
ENDTAB
  0
ENDSEC
  0
SECTION
  2
ENTITIES
  0
POLYLINE
  8
FOREGROUND
  6
CONTINUOUS
 66
     1
 40
0.000000
 41
0.000000
  0
VERTEX
  8
FOREGROUND
  6
CONTINUOUS
 10
0.000000
 20
5.780280
  0
VERTEX
  8
FOREGROUND
  6
CONTINUOUS
 10
8.499920
 20
5.780280
  0
VERTEX
  8
FOREGROUND
  6
CONTINUOUS
 10
8.499920
 20
-5.219720
  0
VERTEX
  8
FOREGROUND
  6
CONTINUOUS
 10
0.000000
 20
-5.219720
  0
VERTEX
  8
FOREGROUND
  6
CONTINUOUS
 10
0.000000
 20
5.780280
  0
SEQEND
  8
0
  0
POLYLINE
  8
FOREGROUND
  6
CONTINUOUS
 66
     1
 40
0.000000
 41
0.000000
  0
VERTEX
  8
FOREGROUND
  6
CONTINUOUS
 10
0.000000
 20
5.780280
  0
VERTEX
  8
FOREGROUND
  6
CONTINUOUS
 10
8.499920
 20
5.780280
  0
VERTEX
  8
FOREGROUND
  6
CONTINUOUS
 10
8.499920
 20
-5.219720
  0
VERTEX
  8
FOREGROUND
  6
CONTINUOUS
 10
0.000000
 20
-5.219720
  0
VERTEX
  8
FOREGROUND
  6
CONTINUOUS
 10
0.000000
 20
5.780280
  0
SEQEND
  8
0
  0
POLYLINE
  8
0
  6
CONTINUOUS
 66
     1
 40
0.014080
 41
0.014080
  0
VERTEX
  8
0
  6
CONTINUOUS
 10
3.919960
 20
4.151840
  0
VERTEX
  8
0
  6
CONTINUOUS
 10
6.182880
 20
4.151840
  0
VERTEX
  8
0
  6
CONTINUOUS
 10
7.082680
 20
5.078480
  0
VERTEX
  8
0
  6
CONTINUOUS
 10
6.860040
 20
5.317400
  0
VERTEX
  8
0
  6
CONTINUOUS
 10
6.858720
 20
5.317400
  0
VERTEX
  8
0
  6
CONTINUOUS
 10
6.824400
 20
5.291440
  0
VERTEX
  8
0
  6
CONTINUOUS
 10
6.793160
 20
5.275160
  0
VERTEX
  8
0
  6
CONTINUOUS
 10
6.778200
 20
5.269440
  0
VERTEX
  8
0
  6
CONTINUOUS
 10
6.750040
 20
5.263720
  0
VERTEX
  8
0
  6
CONTINUOUS
 10
6.723640
 20
5.263720
  0
VERTEX
  8
0
  6
CONTINUOUS
 10
6.698560
 20
5.267240
  0
VERTEX
  8
0
  6
CONTINUOUS
 10
6.612760
 20
5.291000
  0
VERTEX
  8
0
  6
CONTINUOUS
 10
6.587240
 20
5.294520
  0
VERTEX
  8
0
  6
CONTINUOUS
 10
6.559960
 20
5.294520
  0
VERTEX
  8
0
  6
CONTINUOUS
 10
6.531360
 20
5.288800
  0
VERTEX
  8
0
  6
CONTINUOUS
 10
6.500560
 20
5.276040
  0
VERTEX
  8
0
  6
CONTINUOUS
 10
6.466680
 20
5.255360
  0
VERTEX
  8
0
  6
CONTINUOUS
 10
6.429720
 20
5.224560
  0
VERTEX
  8
0
  6
CONTINUOUS
 10
6.389240
 20
5.182760
  0
VERTEX
  8
0
  6
CONTINUOUS
 10
6.386600
 20
5.181440
  0
VERTEX
  8
0
  6
CONTINUOUS
 10
6.269560
 20
5.281320
  0
VERTEX
  8
0
  6
CONTINUOUS
 10
6.265160
 20
5.280000
  0
VERTEX
  8
0
  6
CONTINUOUS
 10
6.187280
 20
5.193320
  0
VERTEX
  8
0
  6
CONTINUOUS
 10
6.106760
 20
5.112800
  0
VERTEX
  8
0
  6
CONTINUOUS
 10
6.023600
 20
5.038440
  0
VERTEX
  8
0
  6
CONTINUOUS
 10
5.938240
 20
4.970240
  0
VERTEX
  8
0
  6
CONTINUOUS
 10
5.851120
 20
4.907760
  0
VERTEX
  8
0
  6
CONTINUOUS
 10
5.761800
 20
4.851440
  0
VERTEX
  8
0
  6
CONTINUOUS
 10
5.670720
 20
4.800840
  0
VERTEX
  8
0
  6
CONTINUOUS
 10
5.578320
 20
4.756400
  0
VERTEX
  8
0
  6
CONTINUOUS
 10
5.531680
 20
4.736160
  0
VERTEX
  8
0
  6
CONTINUOUS
 10
5.437080
 20
4.700080
  0
VERTEX
  8
0
  6
CONTINUOUS
 10
5.389560
 20
4.684240
  0
VERTEX
  8
0
  6
CONTINUOUS
 10
5.294080
 20
4.656960
  0
VERTEX
  8
0
  6
CONTINUOUS
 10
5.197720
 20
4.635400
  0
VERTEX
  8
0
  6
CONTINUOUS
 10
5.100920
 20
4.619120
  0
VERTEX
  8
0
  6
CONTINUOUS
 10
5.003680
 20
4.609000
  0
VERTEX
  8
0
  6
CONTINUOUS
 10
4.955280
 20
4.605480
  0
VERTEX
  8
0
  6
CONTINUOUS
 10
4.858040
 20
4.603280
  0
VERTEX
  8
0
  6
CONTINUOUS
 10
4.809640
 20
4.604160
  0
VERTEX
  8
0
  6
CONTINUOUS
 10
4.712840
 20
4.610320
  0
VERTEX
  8
0
  6
CONTINUOUS
 10
4.616920
 20
4.621760
  0
VERTEX
  8
0
  6
CONTINUOUS
 10
4.521440
 20
4.638480
  0
VERTEX
  8
0
  6
CONTINUOUS
 10
4.426840
 20
4.660480
  0
VERTEX
  8
0
  6
CONTINUOUS
 10
4.333560
 20
4.687760
  0
VERTEX
  8
0
  6
CONTINUOUS
 10
4.241600
 20
4.720760
  0
VERTEX
  8
0
  6
CONTINUOUS
 10
4.151400
 20
4.758160
  0
VERTEX
  8
0
  6
CONTINUOUS
 10
4.062520
 20
4.801280
  0
VERTEX
  8
0
  6
CONTINUOUS
 10
3.975840
 20
4.849240
  0
VERTEX
  8
0
  6
CONTINUOUS
 10
3.891360
 20
4.902040
  0
VERTEX
  8
0
  6
CONTINUOUS
 10
3.809080
 20
4.960120
  0
VERTEX
  8
0
  6
CONTINUOUS
 10
3.729440
 20
5.023480
  0
VERTEX
  8
0
  6
CONTINUOUS
 10
3.690280
 20
5.056480
  0
VERTEX
  8
0
  6
CONTINUOUS
 10
3.615040
 20
5.126880
  0
VERTEX
  8
0
  6
CONTINUOUS
 10
3.578080
 20
5.163840
  0
VERTEX
  8
0
  6
CONTINUOUS
 10
3.507240
 20
5.241720
  0
VERTEX
  8
0
  6
CONTINUOUS
 10
3.439920
 20
5.324000
  0
VERTEX
  8
0
  6
CONTINUOUS
 10
3.435960
 20
5.324000
  0
VERTEX
  8
0
  6
CONTINUOUS
 10
3.313200
 20
5.209160
  0
VERTEX
  8
0
  6
CONTINUOUS
 10
3.196160
 20
5.321360
  0
VERTEX
  8
0
  6
CONTINUOUS
 10
2.986720
 20
5.102680
  0
VERTEX
  8
0
  6
CONTINUOUS
 10
3.885200
 20
4.153160
  0
VERTEX
  8
0
  6
CONTINUOUS
 10
3.898840
 20
4.153160
  0
VERTEX
  8
0
  6
CONTINUOUS
 10
3.893560
 20
4.153160
  0
VERTEX
  8
0
  6
CONTINUOUS
 10
3.926560
 20
4.153160
  0
VERTEX
  8
0
  6
CONTINUOUS
 10
3.919960
 20
4.151840
  0
SEQEND
  8
0
  0
TEXT
  8
0
 10
7.499360
 20
5.286600
 40
0.138346
  1
cove
 41
1.000000
  7
SN0
 71
     0
 72
     5
 11
7.850262
 21
5.286600
  0
TEXT
  8
0
 10
7.628720
 20
5.094760
 40
0.138346
  1
5
 41
1.000000
  7
SN0
 71
     0
 72
     5
 11
7.721286
 21
5.094760
  0
TEXT
  8
0
 10
4.862000
 20
0.576400
 40
0.138346
  1
BA  5
 41
1.000000
  7
SN0
 71
     0
 72
     5
 11
5.268070
 21
0.576400
  0
TEXT
  8
0
 10
4.493720
 20
0.385000
 40
0.138346
  1
1-3/16" x 4-1/8"
 41
1.000000
  7
SN0
 71
     0
 72
     5
 11
5.634748
 21
0.385000
  0
SOLID
  8
0
 62
    15
 10
3.400760
 20
2.162160
 11
4.276800
 21
1.675960
 12
3.338280
 22
1.965480
 13
4.214320
 23
1.478840
  0
POLYLINE
  8
0
  6
CONTINUOUS
 66
     1
 40
0.000000
 41
0.000000
  0
VERTEX
  8
0
  6
CONTINUOUS
 10
3.400760
 20
2.162160
  0
VERTEX
  8
0
  6
CONTINUOUS
 10
4.276800
 20
1.675960
  0
VERTEX
  8
0
  6
CONTINUOUS
 10
4.214320
 20
1.478840
  0
VERTEX
  8
0
  6
CONTINUOUS
 10
3.338280
 20
1.965480
  0
VERTEX
  8
0
  6
CONTINUOUS
 10
3.400760
 20
2.162160
  0
SEQEND
  8
0
  0
SOLID
  8
0
 62
    15
 10
5.478440
 20
3.750120
 11
6.354040
 21
3.263480
 12
5.485040
 22
3.447400
 13
6.360640
 23
2.960760
  0
POLYLINE
  8
0
  6
CONTINUOUS
 66
     1
 40
0.000000
 41
0.000000
  0
VERTEX
  8
0
  6
CONTINUOUS
 10
5.478440
 20
3.750120
  0
VERTEX
  8
0
  6
CONTINUOUS
 10
6.354040
 20
3.263480
  0
VERTEX
  8
0
  6
CONTINUOUS
 10
6.360640
 20
2.960760
  0
VERTEX
  8
0
  6
CONTINUOUS
 10
5.485040
 20
3.447400
  0
VERTEX
  8
0
  6
CONTINUOUS
 10
5.478440
 20
3.750120
  0
SEQEND
  8
0
  0
SOLID
  8
0
 62
    15
 10
5.485040
 20
3.447400
 11
6.360640
 21
2.960760
 12
5.322680
 22
3.443440
 13
6.198280
 23
2.957240
  0
POLYLINE
  8
0
  6
CONTINUOUS
 66
     1
 40
0.000000
 41
0.000000
  0
VERTEX
  8
0
  6
CONTINUOUS
 10
5.485040
 20
3.447400
  0
VERTEX
  8
0
  6
CONTINUOUS
 10
6.360640
 20
2.960760
  0
VERTEX
  8
0
  6
CONTINUOUS
 10
6.198280
 20
2.957240
  0
VERTEX
  8
0
  6
CONTINUOUS
 10
5.322680
 20
3.443440
  0
VERTEX
  8
0
  6
CONTINUOUS
 10
5.485040
 20
3.447400
  0
SEQEND
  8
0
  0
SOLID
  8
0
 62
    15
 10
5.322680
 20
3.443440
 11
6.198280
 21
2.957240
 12
5.316960
 22
3.275800
 13
6.193000
 23
2.789160
  0
POLYLINE
  8
0
  6
CONTINUOUS
 66
     1
 40
0.000000
 41
0.000000
  0
VERTEX
  8
0
  6
CONTINUOUS
 10
5.322680
 20
3.443440
  0
VERTEX
  8
0
  6
CONTINUOUS
 10
6.198280
 20
2.957240
  0
VERTEX
  8
0
  6
CONTINUOUS
 10
6.193000
 20
2.789160
  0
VERTEX
  8
0
  6
CONTINUOUS
 10
5.316960
 20
3.275800
  0
VERTEX
  8
0
  6
CONTINUOUS
 10
5.322680
 20
3.443440
  0
SEQEND
  8
0
  0
SOLID
  8
0
 62
    15
 10
5.316960
 20
3.275800
 11
6.193000
 21
2.789160
 12
5.314320
 22
3.273160
 13
6.189920
 23
2.786520
  0
POLYLINE
  8
0
  6
CONTINUOUS
 66
     1
 40
0.000000
 41
0.000000
  0
VERTEX
  8
0
  6
CONTINUOUS
 10
5.316960
 20
3.275800
  0
VERTEX
  8
0
  6
CONTINUOUS
 10
6.193000
 20
2.789160
  0
VERTEX
  8
0
  6
CONTINUOUS
 10
6.189920
 20
2.786520
  0
VERTEX
  8
0
  6
CONTINUOUS
 10
5.314320
 20
3.273160
  0
VERTEX
  8
0
  6
CONTINUOUS
 10
5.316960
 20
3.275800
  0
SEQEND
  8
0
  0
SOLID
  8
0
 62
    15
 10
5.314320
 20
3.273160
 11
6.189920
 21
2.786520
 12
5.103120
 22
3.288120
 13
5.979160
 23
2.801920
  0
POLYLINE
  8
0
  6
CONTINUOUS
 66
     1
 40
0.000000
 41
0.000000
  0
VERTEX
  8
0
  6
CONTINUOUS
 10
5.314320
 20
3.273160
  0
VERTEX
  8
0
  6
CONTINUOUS
 10
6.189920
 20
2.786520
  0
VERTEX
  8
0
  6
CONTINUOUS
 10
5.979160
 20
2.801920
  0
VERTEX
  8
0
  6
CONTINUOUS
 10
5.103120
 20
3.288120
  0
VERTEX
  8
0
  6
CONTINUOUS
 10
5.314320
 20
3.273160
  0
SEQEND
  8
0
  0
SOLID
  8
0
 62
    15
 10
4.146120
 20
3.762440
 11
5.021720
 21
3.275800
 12
4.142160
 22
3.756720
 13
5.018200
 23
3.270080
  0
POLYLINE
  8
0
  6
CONTINUOUS
 66
     1
 40
0.000000
 41
0.000000
  0
VERTEX
  8
0
  6
CONTINUOUS
 10
4.146120
 20
3.762440
  0
VERTEX
  8
0
  6
CONTINUOUS
 10
5.021720
 20
3.275800
  0
VERTEX
  8
0
  6
CONTINUOUS
 10
5.018200
 20
3.270080
  0
VERTEX
  8
0
  6
CONTINUOUS
 10
4.142160
 20
3.756720
  0
VERTEX
  8
0
  6
CONTINUOUS
 10
4.146120
 20
3.762440
  0
SEQEND
  8
0
  0
SOLID
  8
0
 62
    15
 10
4.897200
 20
3.281080
 11
5.772800
 21
2.794440
 12
4.697000
 22
3.252040
 13
5.572600
 23
2.765840
  0
POLYLINE
  8
0
  6
CONTINUOUS
 66
     1
 40
0.000000
 41
0.000000
  0
VERTEX
  8
0
  6
CONTINUOUS
 10
4.897200
 20
3.281080
  0
VERTEX
  8
0
  6
CONTINUOUS
 10
5.772800
 20
2.794440
  0
VERTEX
  8
0
  6
CONTINUOUS
 10
5.572600
 20
2.765840
  0
VERTEX
  8
0
  6
CONTINUOUS
 10
4.697000
 20
3.252040
  0
VERTEX
  8
0
  6
CONTINUOUS
 10
4.897200
 20
3.281080
  0
SEQEND
  8
0
  0
SOLID
  8
0
 62
    15
 10
4.697000
 20
3.252040
 11
5.572600
 21
2.765840
 12
4.504280
 22
3.202320
 13
5.379880
 23
2.715680
  0
POLYLINE
  8
0
  6
CONTINUOUS
 66
     1
 40
0.000000
 41
0.000000
  0
VERTEX
  8
0
  6
CONTINUOUS
 10
4.697000
 20
3.252040
  0
VERTEX
  8
0
  6
CONTINUOUS
 10
5.572600
 20
2.765840
  0
VERTEX
  8
0
  6
CONTINUOUS
 10
5.379880
 20
2.715680
  0
VERTEX
  8
0
  6
CONTINUOUS
 10
4.504280
 20
3.202320
  0
VERTEX
  8
0
  6
CONTINUOUS
 10
4.697000
 20
3.252040
  0
SEQEND
  8
0
  0
SOLID
  8
0
 62
    15
 10
4.504280
 20
3.202320
 11
5.379880
 21
2.715680
 12
4.320800
 22
3.132800
 13
5.196400
 23
2.646160
  0
POLYLINE
  8
0
  6
CONTINUOUS
 66
     1
 40
0.000000
 41
0.000000
  0
VERTEX
  8
0
  6
CONTINUOUS
 10
4.504280
 20
3.202320
  0
VERTEX
  8
0
  6
CONTINUOUS
 10
5.379880
 20
2.715680
  0
VERTEX
  8
0
  6
CONTINUOUS
 10
5.196400
 20
2.646160
  0
VERTEX
  8
0
  6
CONTINUOUS
 10
4.320800
 20
3.132800
  0
VERTEX
  8
0
  6
CONTINUOUS
 10
4.504280
 20
3.202320
  0
SEQEND
  8
0
  0
SOLID
  8
0
 62
    15
 10
4.320800
 20
3.132800
 11
5.196400
 21
2.646160
 12
4.147440
 22
3.043920
 13
5.023040
 23
2.557720
  0
POLYLINE
  8
0
  6
CONTINUOUS
 66
     1
 40
0.000000
 41
0.000000
  0
VERTEX
  8
0
  6
CONTINUOUS
 10
4.320800
 20
3.132800
  0
VERTEX
  8
0
  6
CONTINUOUS
 10
5.196400
 20
2.646160
  0
VERTEX
  8
0
  6
CONTINUOUS
 10
5.023040
 20
2.557720
  0
VERTEX
  8
0
  6
CONTINUOUS
 10
4.147440
 20
3.043920
  0
VERTEX
  8
0
  6
CONTINUOUS
 10
4.320800
 20
3.132800
  0
SEQEND
  8
0
  0
SOLID
  8
0
 62
    15
 10
4.147440
 20
3.043920
 11
5.023040
 21
2.557720
 12
3.985520
 22
2.937440
 13
4.861120
 23
2.450800
  0
POLYLINE
  8
0
  6
CONTINUOUS
 66
     1
 40
0.000000
 41
0.000000
  0
VERTEX
  8
0
  6
CONTINUOUS
 10
4.147440
 20
3.043920
  0
VERTEX
  8
0
  6
CONTINUOUS
 10
5.023040
 20
2.557720
  0
VERTEX
  8
0
  6
CONTINUOUS
 10
4.861120
 20
2.450800
  0
VERTEX
  8
0
  6
CONTINUOUS
 10
3.985520
 20
2.937440
  0
VERTEX
  8
0
  6
CONTINUOUS
 10
4.147440
 20
3.043920
  0
SEQEND
  8
0
  0
SOLID
  8
0
 62
    15
 10
3.985520
 20
2.937440
 11
4.861120
 21
2.450800
 12
3.836800
 22
2.813360
 13
4.712840
 23
2.326720
  0
POLYLINE
  8
0
  6
CONTINUOUS
 66
     1
 40
0.000000
 41
0.000000
  0
VERTEX
  8
0
  6
CONTINUOUS
 10
3.985520
 20
2.937440
  0
VERTEX
  8
0
  6
CONTINUOUS
 10
4.861120
 20
2.450800
  0
VERTEX
  8
0
  6
CONTINUOUS
 10
4.712840
 20
2.326720
  0
VERTEX
  8
0
  6
CONTINUOUS
 10
3.836800
 20
2.813360
  0
VERTEX
  8
0
  6
CONTINUOUS
 10
3.985520
 20
2.937440
  0
SEQEND
  8
0
  0
SOLID
  8
0
 62
    15
 10
3.836800
 20
2.813360
 11
4.712840
 21
2.326720
 12
3.702600
 22
2.673000
 13
4.578640
 23
2.186360
  0
POLYLINE
  8
0
  6
CONTINUOUS
 66
     1
 40
0.000000
 41
0.000000
  0
VERTEX
  8
0
  6
CONTINUOUS
 10
3.836800
 20
2.813360
  0
VERTEX
  8
0
  6
CONTINUOUS
 10
4.712840
 20
2.326720
  0
VERTEX
  8
0
  6
CONTINUOUS
 10
4.578640
 20
2.186360
  0
VERTEX
  8
0
  6
CONTINUOUS
 10
3.702600
 20
2.673000
  0
VERTEX
  8
0
  6
CONTINUOUS
 10
3.836800
 20
2.813360
  0
SEQEND
  8
0
  0
SOLID
  8
0
 62
    15
 10
3.702600
 20
2.673000
 11
4.578640
 21
2.186360
 12
3.584240
 22
2.516800
 13
4.460280
 23
2.030600
  0
POLYLINE
  8
0
  6
CONTINUOUS
 66
     1
 40
0.000000
 41
0.000000
  0
VERTEX
  8
0
  6
CONTINUOUS
 10
3.702600
 20
2.673000
  0
VERTEX
  8
0
  6
CONTINUOUS
 10
4.578640
 20
2.186360
  0
VERTEX
  8
0
  6
CONTINUOUS
 10
4.460280
 20
2.030600
  0
VERTEX
  8
0
  6
CONTINUOUS
 10
3.584240
 20
2.516800
  0
VERTEX
  8
0
  6
CONTINUOUS
 10
3.702600
 20
2.673000
  0
SEQEND
  8
0
  0
SOLID
  8
0
 62
    15
 10
3.584240
 20
2.516800
 11
4.460280
 21
2.030600
 12
3.483480
 22
2.346520
 13
4.359080
 23
1.860320
  0
POLYLINE
  8
0
  6
CONTINUOUS
 66
     1
 40
0.000000
 41
0.000000
  0
VERTEX
  8
0
  6
CONTINUOUS
 10
3.584240
 20
2.516800
  0
VERTEX
  8
0
  6
CONTINUOUS
 10
4.460280
 20
2.030600
  0
VERTEX
  8
0
  6
CONTINUOUS
 10
4.359080
 20
1.860320
  0
VERTEX
  8
0
  6
CONTINUOUS
 10
3.483480
 20
2.346520
  0
VERTEX
  8
0
  6
CONTINUOUS
 10
3.584240
 20
2.516800
  0
SEQEND
  8
0
  0
SOLID
  8
0
 62
    15
 10
3.483480
 20
2.346520
 11
4.359080
 21
1.860320
 12
3.400760
 22
2.162160
 13
4.276800
 23
1.675960
  0
POLYLINE
  8
0
  6
CONTINUOUS
 66
     1
 40
0.000000
 41
0.000000
  0
VERTEX
  8
0
  6
CONTINUOUS
 10
3.483480
 20
2.346520
  0
VERTEX
  8
0
  6
CONTINUOUS
 10
4.359080
 20
1.860320
  0
VERTEX
  8
0
  6
CONTINUOUS
 10
4.276800
 20
1.675960
  0
VERTEX
  8
0
  6
CONTINUOUS
 10
3.400760
 20
2.162160
  0
VERTEX
  8
0
  6
CONTINUOUS
 10
3.483480
 20
2.346520
  0
SEQEND
  8
0
  0
SOLID
  8
0
 62
    15
 10
4.165920
 20
3.780040
 11
5.041520
 21
3.293840
 12
4.161960
 22
3.776520
 13
5.038000
 23
3.289880
  0
POLYLINE
  8
0
  6
CONTINUOUS
 66
     1
 40
0.000000
 41
0.000000
  0
VERTEX
  8
0
  6
CONTINUOUS
 10
4.165920
 20
3.780040
  0
VERTEX
  8
0
  6
CONTINUOUS
 10
5.041520
 20
3.293840
  0
VERTEX
  8
0
  6
CONTINUOUS
 10
5.038000
 20
3.289880
  0
VERTEX
  8
0
  6
CONTINUOUS
 10
4.161960
 20
3.776520
  0
VERTEX
  8
0
  6
CONTINUOUS
 10
4.165920
 20
3.780040
  0
SEQEND
  8
0
  0
SOLID
  8
0
 62
    15
 10
3.338280
 20
1.965480
 11
4.214320
 21
1.478840
 12
3.297360
 22
1.756480
 13
4.173400
 23
1.269840
  0
POLYLINE
  8
0
  6
CONTINUOUS
 66
     1
 40
0.000000
 41
0.000000
  0
VERTEX
  8
0
  6
CONTINUOUS
 10
3.338280
 20
1.965480
  0
VERTEX
  8
0
  6
CONTINUOUS
 10
4.214320
 20
1.478840
  0
VERTEX
  8
0
  6
CONTINUOUS
 10
4.173400
 20
1.269840
  0
VERTEX
  8
0
  6
CONTINUOUS
 10
3.297360
 20
1.756480
  0
VERTEX
  8
0
  6
CONTINUOUS
 10
3.338280
 20
1.965480
  0
SEQEND
  8
0
  0
SOLID
  8
0
 62
    15
 10
3.297360
 20
1.756480
 11
4.173400
 21
1.269840
 12
3.279320
 22
1.536480
 13
4.154920
 23
1.049840
  0
POLYLINE
  8
0
  6
CONTINUOUS
 66
     1
 40
0.000000
 41
0.000000
  0
VERTEX
  8
0
  6
CONTINUOUS
 10
3.297360
 20
1.756480
  0
VERTEX
  8
0
  6
CONTINUOUS
 10
4.173400
 20
1.269840
  0
VERTEX
  8
0
  6
CONTINUOUS
 10
4.154920
 20
1.049840
  0
VERTEX
  8
0
  6
CONTINUOUS
 10
3.279320
 20
1.536480
  0
VERTEX
  8
0
  6
CONTINUOUS
 10
3.297360
 20
1.756480
  0
SEQEND
  8
0
  0
SOLID
  8
0
 62
    15
 10
3.279320
 20
1.536480
 11
4.154920
 21
1.049840
 12
3.285480
 22
1.306360
 13
4.161080
 23
0.819720
  0
POLYLINE
  8
0
  6
CONTINUOUS
 66
     1
 40
0.000000
 41
0.000000
  0
VERTEX
  8
0
  6
CONTINUOUS
 10
3.279320
 20
1.536480
  0
VERTEX
  8
0
  6
CONTINUOUS
 10
4.154920
 20
1.049840
  0
VERTEX
  8
0
  6
CONTINUOUS
 10
4.161080
 20
0.819720
  0
VERTEX
  8
0
  6
CONTINUOUS
 10
3.285480
 20
1.306360
  0
VERTEX
  8
0
  6
CONTINUOUS
 10
3.279320
 20
1.536480
  0
SEQEND
  8
0
  0
SOLID
  8
0
 62
    15
 10
3.285480
 20
1.306360
 11
4.161080
 21
0.819720
 12
3.283280
 22
1.302400
 13
4.159320
 23
0.816200
  0
POLYLINE
  8
0
  6
CONTINUOUS
 66
     1
 40
0.000000
 41
0.000000
  0
VERTEX
  8
0
  6
CONTINUOUS
 10
3.285480
 20
1.306360
  0
VERTEX
  8
0
  6
CONTINUOUS
 10
4.161080
 20
0.819720
  0
VERTEX
  8
0
  6
CONTINUOUS
 10
4.159320
 20
0.816200
  0
VERTEX
  8
0
  6
CONTINUOUS
 10
3.283280
 20
1.302400
  0
VERTEX
  8
0
  6
CONTINUOUS
 10
3.285480
 20
1.306360
  0
SEQEND
  8
0
  0
SOLID
  8
0
 62
    15
 10
3.283280
 20
1.302400
 11
4.159320
 21
0.816200
 12
3.129720
 22
1.290080
 13
4.005320
 23
0.803880
  0
POLYLINE
  8
0
  6
CONTINUOUS
 66
     1
 40
0.000000
 41
0.000000
  0
VERTEX
  8
0
  6
CONTINUOUS
 10
3.283280
 20
1.302400
  0
VERTEX
  8
0
  6
CONTINUOUS
 10
4.159320
 20
0.816200
  0
VERTEX
  8
0
  6
CONTINUOUS
 10
4.005320
 20
0.803880
  0
VERTEX
  8
0
  6
CONTINUOUS
 10
3.129720
 20
1.290080
  0
VERTEX
  8
0
  6
CONTINUOUS
 10
3.283280
 20
1.302400
  0
SEQEND
  8
0
  0
SOLID
  8
0
 62
    15
 10
3.129720
 20
1.290080
 11
4.005320
 21
0.803880
 12
3.128840
 22
1.287440
 13
4.004440
 23
0.800800
  0
POLYLINE
  8
0
  6
CONTINUOUS
 66
     1
 40
0.000000
 41
0.000000
  0
VERTEX
  8
0
  6
CONTINUOUS
 10
3.129720
 20
1.290080
  0
VERTEX
  8
0
  6
CONTINUOUS
 10
4.005320
 20
0.803880
  0
VERTEX
  8
0
  6
CONTINUOUS
 10
4.004440
 20
0.800800
  0
VERTEX
  8
0
  6
CONTINUOUS
 10
3.128840
 20
1.287440
  0
VERTEX
  8
0
  6
CONTINUOUS
 10
3.129720
 20
1.290080
  0
SEQEND
  8
0
  0
SOLID
  8
0
 62
    15
 10
3.128840
 20
1.287440
 11
4.004440
 21
0.800800
 12
3.125320
 22
1.181400
 13
4.000920
 23
0.694760
  0
POLYLINE
  8
0
  6
CONTINUOUS
 66
     1
 40
0.000000
 41
0.000000
  0
VERTEX
  8
0
  6
CONTINUOUS
 10
3.128840
 20
1.287440
  0
VERTEX
  8
0
  6
CONTINUOUS
 10
4.004440
 20
0.800800
  0
VERTEX
  8
0
  6
CONTINUOUS
 10
4.000920
 20
0.694760
  0
VERTEX
  8
0
  6
CONTINUOUS
 10
3.125320
 20
1.181400
  0
VERTEX
  8
0
  6
CONTINUOUS
 10
3.128840
 20
1.287440
  0
SEQEND
  8
0
  0
SOLID
  8
0
 62
    15
 10
3.125320
 20
1.181400
 11
4.000920
 21
0.694760
 12
3.103320
 22
1.111880
 13
3.978920
 23
0.625680
  0
POLYLINE
  8
0
  6
CONTINUOUS
 66
     1
 40
0.000000
 41
0.000000
  0
VERTEX
  8
0
  6
CONTINUOUS
 10
3.125320
 20
1.181400
  0
VERTEX
  8
0
  6
CONTINUOUS
 10
4.000920
 20
0.694760
  0
VERTEX
  8
0
  6
CONTINUOUS
 10
3.978920
 20
0.625680
  0
VERTEX
  8
0
  6
CONTINUOUS
 10
3.103320
 20
1.111880
  0
VERTEX
  8
0
  6
CONTINUOUS
 10
3.125320
 20
1.181400
  0
SEQEND
  8
0
  0
SOLID
  8
0
 62
    15
 10
3.103320
 20
1.111880
 11
3.978920
 21
0.625680
 12
3.068120
 22
1.068320
 13
3.943720
 23
0.582120
  0
POLYLINE
  8
0
  6
CONTINUOUS
 66
     1
 40
0.000000
 41
0.000000
  0
VERTEX
  8
0
  6
CONTINUOUS
 10
3.103320
 20
1.111880
  0
VERTEX
  8
0
  6
CONTINUOUS
 10
3.978920
 20
0.625680
  0
VERTEX
  8
0
  6
CONTINUOUS
 10
3.943720
 20
0.582120
  0
VERTEX
  8
0
  6
CONTINUOUS
 10
3.068120
 20
1.068320
  0
VERTEX
  8
0
  6
CONTINUOUS
 10
3.103320
 20
1.111880
  0
SEQEND
  8
0
  0
SOLID
  8
0
 62
    15
 10
3.068120
 20
1.068320
 11
3.943720
 21
0.582120
 12
3.025440
 22
1.040160
 13
3.901040
 23
0.553520
  0
POLYLINE
  8
0
  6
CONTINUOUS
 66
     1
 40
0.000000
 41
0.000000
  0
VERTEX
  8
0
  6
CONTINUOUS
 10
3.068120
 20
1.068320
  0
VERTEX
  8
0
  6
CONTINUOUS
 10
3.943720
 20
0.582120
  0
VERTEX
  8
0
  6
CONTINUOUS
 10
3.901040
 20
0.553520
  0
VERTEX
  8
0
  6
CONTINUOUS
 10
3.025440
 20
1.040160
  0
VERTEX
  8
0
  6
CONTINUOUS
 10
3.068120
 20
1.068320
  0
SEQEND
  8
0
  0
SOLID
  8
0
 62
    15
 10
3.025440
 20
1.040160
 11
3.901040
 21
0.553520
 12
2.940080
 22
0.984720
 13
3.815680
 23
0.498520
  0
POLYLINE
  8
0
  6
CONTINUOUS
 66
     1
 40
0.000000
 41
0.000000
  0
VERTEX
  8
0
  6
CONTINUOUS
 10
3.025440
 20
1.040160
  0
VERTEX
  8
0
  6
CONTINUOUS
 10
3.901040
 20
0.553520
  0
VERTEX
  8
0
  6
CONTINUOUS
 10
3.815680
 20
0.498520
  0
VERTEX
  8
0
  6
CONTINUOUS
 10
2.940080
 20
0.984720
  0
VERTEX
  8
0
  6
CONTINUOUS
 10
3.025440
 20
1.040160
  0
SEQEND
  8
0
  0
SOLID
  8
0
 62
    15
 10
2.940080
 20
0.984720
 11
3.815680
 21
0.498520
 12
2.908400
 22
0.936760
 13
3.784440
 23
0.450120
  0
POLYLINE
  8
0
  6
CONTINUOUS
 66
     1
 40
0.000000
 41
0.000000
  0
VERTEX
  8
0
  6
CONTINUOUS
 10
2.940080
 20
0.984720
  0
VERTEX
  8
0
  6
CONTINUOUS
 10
3.815680
 20
0.498520
  0
VERTEX
  8
0
  6
CONTINUOUS
 10
3.784440
 20
0.450120
  0
VERTEX
  8
0
  6
CONTINUOUS
 10
2.908400
 20
0.936760
  0
VERTEX
  8
0
  6
CONTINUOUS
 10
2.940080
 20
0.984720
  0
SEQEND
  8
0
  0
SOLID
  8
0
 62
    15
 10
2.908400
 20
0.936760
 11
3.784440
 21
0.450120
 12
2.892120
 22
0.860200
 13
3.767720
 23
0.374000
  0
POLYLINE
  8
0
  6
CONTINUOUS
 66
     1
 40
0.000000
 41
0.000000
  0
VERTEX
  8
0
  6
CONTINUOUS
 10
2.908400
 20
0.936760
  0
VERTEX
  8
0
  6
CONTINUOUS
 10
3.784440
 20
0.450120
  0
VERTEX
  8
0
  6
CONTINUOUS
 10
3.767720
 20
0.374000
  0
VERTEX
  8
0
  6
CONTINUOUS
 10
2.892120
 20
0.860200
  0
VERTEX
  8
0
  6
CONTINUOUS
 10
2.908400
 20
0.936760
  0
SEQEND
  8
0
  0
SOLID
  8
0
 62
    15
 10
2.892120
 20
0.860200
 11
3.767720
 21
0.374000
 12
2.891240
 22
0.859320
 13
3.766840
 23
0.373120
  0
POLYLINE
  8
0
  6
CONTINUOUS
 66
     1
 40
0.000000
 41
0.000000
  0
VERTEX
  8
0
  6
CONTINUOUS
 10
2.892120
 20
0.860200
  0
VERTEX
  8
0
  6
CONTINUOUS
 10
3.767720
 20
0.374000
  0
VERTEX
  8
0
  6
CONTINUOUS
 10
3.766840
 20
0.373120
  0
VERTEX
  8
0
  6
CONTINUOUS
 10
2.891240
 20
0.859320
  0
VERTEX
  8
0
  6
CONTINUOUS
 10
2.892120
 20
0.860200
  0
SEQEND
  8
0
  0
SOLID
  8
0
 62
    15
 10
2.891240
 20
0.859320
 11
3.766840
 21
0.373120
 12
2.565200
 22
0.870760
 13
3.440800
 23
0.384120
  0
POLYLINE
  8
0
  6
CONTINUOUS
 66
     1
 40
0.000000
 41
0.000000
  0
VERTEX
  8
0
  6
CONTINUOUS
 10
2.891240
 20
0.859320
  0
VERTEX
  8
0
  6
CONTINUOUS
 10
3.766840
 20
0.373120
  0
VERTEX
  8
0
  6
CONTINUOUS
 10
3.440800
 20
0.384120
  0
VERTEX
  8
0
  6
CONTINUOUS
 10
2.565200
 20
0.870760
  0
VERTEX
  8
0
  6
CONTINUOUS
 10
2.891240
 20
0.859320
  0
SEQEND
  8
0
  0
POLYLINE
  8
0
  6
CONTINUOUS
 66
     1
 40
0.000000
 41
0.000000
  0
VERTEX
  8
0
  6
CONTINUOUS
 10
2.565200
 20
0.870760
  0
VERTEX
  8
0
  6
CONTINUOUS
 10
3.440800
 20
0.384120
  0
VERTEX
  8
0
  6
CONTINUOUS
 10
2.565200
 20
0.870760
  0
SEQEND
  8
0
  0
SOLID
  8
0
 62
    15
 10
5.103120
 20
3.288120
 11
5.979160
 21
2.801920
 12
4.897200
 22
3.281080
 13
5.772800
 23
2.794440
  0
POLYLINE
  8
0
  6
CONTINUOUS
 66
     1
 40
0.000000
 41
0.000000
  0
VERTEX
  8
0
  6
CONTINUOUS
 10
5.103120
 20
3.288120
  0
VERTEX
  8
0
  6
CONTINUOUS
 10
5.979160
 20
2.801920
  0
VERTEX
  8
0
  6
CONTINUOUS
 10
5.772800
 20
2.794440
  0
VERTEX
  8
0
  6
CONTINUOUS
 10
4.897200
 20
3.281080
  0
VERTEX
  8
0
  6
CONTINUOUS
 10
5.103120
 20
3.288120
  0
SEQEND
  8
0
  0
POLYLINE
  8
0
  6
CONTINUOUS
 66
     1
 40
0.000000
 41
0.000000
  0
VERTEX
  8
0
  6
CONTINUOUS
 10
4.142160
 20
3.756720
  0
VERTEX
  8
0
  6
CONTINUOUS
 10
4.165920
 20
3.780040
  0
VERTEX
  8
0
  6
CONTINUOUS
 10
4.161960
 20
3.776520
  0
VERTEX
  8
0
  6
CONTINUOUS
 10
4.171640
 20
3.785760
  0
VERTEX
  8
0
  6
CONTINUOUS
 10
5.478440
 20
3.750120
  0
VERTEX
  8
0
  6
CONTINUOUS
 10
5.485040
 20
3.447400
  0
VERTEX
  8
0
  6
CONTINUOUS
 10
5.322680
 20
3.443440
  0
VERTEX
  8
0
  6
CONTINUOUS
 10
5.316960
 20
3.275800
  0
VERTEX
  8
0
  6
CONTINUOUS
 10
5.314320
 20
3.273160
  0
VERTEX
  8
0
  6
CONTINUOUS
 10
5.103120
 20
3.288120
  0
VERTEX
  8
0
  6
CONTINUOUS
 10
4.897200
 20
3.281080
  0
VERTEX
  8
0
  6
CONTINUOUS
 10
4.697000
 20
3.252040
  0
VERTEX
  8
0
  6
CONTINUOUS
 10
4.504280
 20
3.202320
  0
VERTEX
  8
0
  6
CONTINUOUS
 10
4.320800
 20
3.132800
  0
VERTEX
  8
0
  6
CONTINUOUS
 10
4.147440
 20
3.043920
  0
VERTEX
  8
0
  6
CONTINUOUS
 10
3.985520
 20
2.937440
  0
VERTEX
  8
0
  6
CONTINUOUS
 10
3.836800
 20
2.813360
  0
VERTEX
  8
0
  6
CONTINUOUS
 10
3.702600
 20
2.673000
  0
VERTEX
  8
0
  6
CONTINUOUS
 10
3.584240
 20
2.516800
  0
VERTEX
  8
0
  6
CONTINUOUS
 10
3.483480
 20
2.346520
  0
VERTEX
  8
0
  6
CONTINUOUS
 10
3.400760
 20
2.162160
  0
VERTEX
  8
0
  6
CONTINUOUS
 10
3.338280
 20
1.965480
  0
VERTEX
  8
0
  6
CONTINUOUS
 10
3.297360
 20
1.756480
  0
VERTEX
  8
0
  6
CONTINUOUS
 10
3.279320
 20
1.536480
  0
VERTEX
  8
0
  6
CONTINUOUS
 10
3.285480
 20
1.306360
  0
VERTEX
  8
0
  6
CONTINUOUS
 10
3.283280
 20
1.302400
  0
VERTEX
  8
0
  6
CONTINUOUS
 10
3.129720
 20
1.290080
  0
VERTEX
  8
0
  6
CONTINUOUS
 10
3.128840
 20
1.287440
  0
VERTEX
  8
0
  6
CONTINUOUS
 10
3.125320
 20
1.181400
  0
VERTEX
  8
0
  6
CONTINUOUS
 10
3.103320
 20
1.111880
  0
VERTEX
  8
0
  6
CONTINUOUS
 10
3.068120
 20
1.068320
  0
VERTEX
  8
0
  6
CONTINUOUS
 10
3.025440
 20
1.040160
  0
VERTEX
  8
0
  6
CONTINUOUS
 10
2.940080
 20
0.984720
  0
VERTEX
  8
0
  6
CONTINUOUS
 10
2.908400
 20
0.936760
  0
VERTEX
  8
0
  6
CONTINUOUS
 10
2.892120
 20
0.860200
  0
VERTEX
  8
0
  6
CONTINUOUS
 10
2.891240
 20
0.859320
  0
VERTEX
  8
0
  6
CONTINUOUS
 10
2.565200
 20
0.870760
  0
VERTEX
  8
0
  6
CONTINUOUS
 10
2.546280
 20
2.162160
  0
VERTEX
  8
0
  6
CONTINUOUS
 10
4.146120
 20
3.762440
  0
VERTEX
  8
0
  6
CONTINUOUS
 10
4.142160
 20
3.756720
  0
SEQEND
  8
0
  0
ENDSEC
  0
EOF
