  0
SECTION
  2
HEADER
  9
$ACADVER
  1
AC1006
  9
$EXTMIN
 10
3.447400
 20
0.312400
  9
$EXTMAX
 10
7.773480
 20
2.689720
  9
$LTSCALE
 40
0.044000
  9
$PDMODE
 70
    35
  9
$PDSIZE
 40
0.035200
  0
ENDSEC
  0
SECTION
  2
TABLES
  0
TABLE
  2
LTYPE
 70
     9
  0
LTYPE
  2
CONTINUOUS
 70
    64
  3
Solid line
 72
    65
 73
     0
 40
0.000000
  0
LTYPE
  2
DASHED
 70
    64
  3
__ __ __ __ __ __ __ __ __ __ __ __ __ __ __
 72
    65
 73
     2
 40
0.000330
 49
0.000220
 49
-0.000110
  0
LTYPE
  2
HIDDEN
 70
    64
  3
 _ _ _ _ _ _ _ _ _ _ _ _ _ _ _ _ _ _ _ _ _ _
 72
    65
 73
     2
 40
0.000165
 49
0.000110
 49
-0.000055
  0
LTYPE
  2
CENTER
 70
    64
  3
____ _ ____ _ ____ _ ____ _ ____ _ ____ _ ____
 72
    65
 73
     4
 40
0.000880
 49
0.000550
 49
-0.000110
 49
0.000110
 49
-0.000110
  0
LTYPE
  2
PHANTOM
 70
    64
  3
_____ _ _ _____ _ _ _____ _ _ _____ _ _ ____
 72
    65
 73
     6
 40
0.001100
 49
0.000550
 49
-0.000110
 49
0.000110
 49
-0.000110
 49
0.000110
 49
-0.000110
  0
LTYPE
  2
DOT
 70
    64
  3
...............................................
 72
    65
 73
     2
 40
0.000110
 49
0.000000
 49
-0.000110
  0
LTYPE
  2
DASHDOT
 70
    64
  3
__ . __ . __ . __ . __ . __ . __ . __ . __ . __
 72
    65
 73
     4
 40
0.000440
 49
0.000220
 49
-0.000110
 49
0.000000
 49
-0.000110
  0
LTYPE
  2
BORDER
 70
    64
  3
__ __ . __ __ . __ __ . __ __ . __ __ . __ __
 72
    65
 73
     6
 40
0.000770
 49
0.000220
 49
-0.000110
 49
0.000220
 49
-0.000110
 49
0.000000
 49
-0.000110
  0
LTYPE
  2
DIVIDE
 70
    64
  3
__ . . __ . . __ . . __ . . __ . . __ . . __
 72
    65
 73
     6
 40
0.000550
 49
0.000220
 49
-0.000110
 49
0.000000
 49
-0.000110
 49
0.000000
 49
-0.000110
  0
LTYPE
  2
DOTDOT
 70
    64
  3
 . .  . .  . .  . .  . .  . . 
 72
    65
 73
     5
 40
0.000242
 49
-0.000110
 49
0.000000
 49
-0.000110
 49
0.000000
 49
-0.000110
  0
ENDTAB
  0
TABLE
  2
STYLE
 70
     2
  0
STYLE
 70
     0
  2
SN0
 40
0.000000
 41
0.000440
 50
0.000000
 71
     0
 42
0.000000
  3
ROMAND
  0
STYLE
 70
    68
  2
SV0
 40
0.000000
 41
0.000440
 50
0.000000
 71
     0
 42
0.000000
  3
ROMAND
  0
ENDTAB
  0
TABLE
  2
LAYER
 70
     3
  0
LAYER
  2
FOREGROUND
 70
    64
 62
     7
  6
CONTINUOUS
  0
LAYER
  2
BACKGROUND
 70
    65
 62
    -7
  6
CONTINUOUS
  0
LAYER
  2
0
 70
    64
 62
     7
  6
CONTINUOUS
  0
ENDTAB
  0
ENDSEC
  0
SECTION
  2
ENTITIES
  0
POLYLINE
  8
FOREGROUND
  6
CONTINUOUS
 66
     1
 40
0.000000
 41
0.000000
  0
VERTEX
  8
FOREGROUND
  6
CONTINUOUS
 10
0.000000
 20
3.002120
  0
VERTEX
  8
FOREGROUND
  6
CONTINUOUS
 10
8.499920
 20
3.002120
  0
VERTEX
  8
FOREGROUND
  6
CONTINUOUS
 10
8.499920
 20
-7.997880
  0
VERTEX
  8
FOREGROUND
  6
CONTINUOUS
 10
0.000000
 20
-7.997880
  0
VERTEX
  8
FOREGROUND
  6
CONTINUOUS
 10
0.000000
 20
3.002120
  0
SEQEND
  8
0
  0
POLYLINE
  8
FOREGROUND
  6
CONTINUOUS
 66
     1
 40
0.000000
 41
0.000000
  0
VERTEX
  8
FOREGROUND
  6
CONTINUOUS
 10
0.000000
 20
3.002120
  0
VERTEX
  8
FOREGROUND
  6
CONTINUOUS
 10
8.499920
 20
3.002120
  0
VERTEX
  8
FOREGROUND
  6
CONTINUOUS
 10
8.499920
 20
-7.997880
  0
VERTEX
  8
FOREGROUND
  6
CONTINUOUS
 10
0.000000
 20
-7.997880
  0
VERTEX
  8
FOREGROUND
  6
CONTINUOUS
 10
0.000000
 20
3.002120
  0
SEQEND
  8
0
  0
POLYLINE
  8
0
  6
CONTINUOUS
 66
     1
 40
0.014080
 41
0.014080
  0
VERTEX
  8
0
  6
CONTINUOUS
 10
6.966080
 20
1.930720
  0
VERTEX
  8
0
  6
CONTINUOUS
 10
6.966080
 20
1.733160
  0
VERTEX
  8
0
  6
CONTINUOUS
 10
5.348640
 20
1.733160
  0
VERTEX
  8
0
  6
CONTINUOUS
 10
5.348640
 20
1.933360
  0
VERTEX
  8
0
  6
CONTINUOUS
 10
5.348640
 20
1.930720
  0
VERTEX
  8
0
  6
CONTINUOUS
 10
5.348640
 20
1.937320
  0
VERTEX
  8
0
  6
CONTINUOUS
 10
5.393960
 20
1.942600
  0
VERTEX
  8
0
  6
CONTINUOUS
 10
5.434000
 20
1.950520
  0
VERTEX
  8
0
  6
CONTINUOUS
 10
5.479320
 20
1.964600
  0
VERTEX
  8
0
  6
CONTINUOUS
 10
5.516720
 20
1.981760
  0
VERTEX
  8
0
  6
CONTINUOUS
 10
5.547960
 20
2.001560
  0
VERTEX
  8
0
  6
CONTINUOUS
 10
5.573920
 20
2.023560
  0
VERTEX
  8
0
  6
CONTINUOUS
 10
5.596360
 20
2.046440
  0
VERTEX
  8
0
  6
CONTINUOUS
 10
5.663240
 20
2.128720
  0
VERTEX
  8
0
  6
CONTINUOUS
 10
5.696240
 20
2.159520
  0
VERTEX
  8
0
  6
CONTINUOUS
 10
5.723080
 20
2.176680
  0
VERTEX
  8
0
  6
CONTINUOUS
 10
5.755200
 20
2.190760
  0
VERTEX
  8
0
  6
CONTINUOUS
 10
5.793920
 20
2.200440
  0
VERTEX
  8
0
  6
CONTINUOUS
 10
5.828240
 20
2.204840
  0
VERTEX
  8
0
  6
CONTINUOUS
 10
5.868720
 20
2.206600
  0
VERTEX
  8
0
  6
CONTINUOUS
 10
5.868720
 20
2.291960
  0
VERTEX
  8
0
  6
CONTINUOUS
 10
6.034160
 20
2.291960
  0
VERTEX
  8
0
  6
CONTINUOUS
 10
6.033720
 20
2.326720
  0
VERTEX
  8
0
  6
CONTINUOUS
 10
6.036800
 20
2.359720
  0
VERTEX
  8
0
  6
CONTINUOUS
 10
6.047360
 20
2.405480
  0
VERTEX
  8
0
  6
CONTINUOUS
 10
6.064520
 20
2.446840
  0
VERTEX
  8
0
  6
CONTINUOUS
 10
6.087400
 20
2.483360
  0
VERTEX
  8
0
  6
CONTINUOUS
 10
6.115560
 20
2.515040
  0
VERTEX
  8
0
  6
CONTINUOUS
 10
6.136680
 20
2.533520
  0
VERTEX
  8
0
  6
CONTINUOUS
 10
6.171000
 20
2.557280
  0
VERTEX
  8
0
  6
CONTINUOUS
 10
6.208400
 20
2.575760
  0
VERTEX
  8
0
  6
CONTINUOUS
 10
6.248440
 20
2.588960
  0
VERTEX
  8
0
  6
CONTINUOUS
 10
6.289360
 20
2.596880
  0
VERTEX
  8
0
  6
CONTINUOUS
 10
6.317520
 20
2.599080
  0
VERTEX
  8
0
  6
CONTINUOUS
 10
6.345240
 20
2.598640
  0
VERTEX
  8
0
  6
CONTINUOUS
 10
6.387040
 20
2.593800
  0
VERTEX
  8
0
  6
CONTINUOUS
 10
6.414320
 20
2.587640
  0
VERTEX
  8
0
  6
CONTINUOUS
 10
6.453920
 20
2.573120
  0
VERTEX
  8
0
  6
CONTINUOUS
 10
6.490880
 20
2.552880
  0
VERTEX
  8
0
  6
CONTINUOUS
 10
6.525200
 20
2.526480
  0
VERTEX
  8
0
  6
CONTINUOUS
 10
6.555560
 20
2.493920
  0
VERTEX
  8
0
  6
CONTINUOUS
 10
6.581520
 20
2.455200
  0
VERTEX
  8
0
  6
CONTINUOUS
 10
6.595600
 20
2.426160
  0
VERTEX
  8
0
  6
CONTINUOUS
 10
6.607480
 20
2.394040
  0
VERTEX
  8
0
  6
CONTINUOUS
 10
6.616280
 20
2.358840
  0
VERTEX
  8
0
  6
CONTINUOUS
 10
6.622000
 20
2.321000
  0
VERTEX
  8
0
  6
CONTINUOUS
 10
6.624640
 20
2.277440
  0
VERTEX
  8
0
  6
CONTINUOUS
 10
6.738160
 20
2.277440
  0
VERTEX
  8
0
  6
CONTINUOUS
 10
6.737280
 20
2.246200
  0
VERTEX
  8
0
  6
CONTINUOUS
 10
6.738600
 20
2.215840
  0
VERTEX
  8
0
  6
CONTINUOUS
 10
6.741680
 20
2.186800
  0
VERTEX
  8
0
  6
CONTINUOUS
 10
6.746960
 20
2.159080
  0
VERTEX
  8
0
  6
CONTINUOUS
 10
6.754000
 20
2.132680
  0
VERTEX
  8
0
  6
CONTINUOUS
 10
6.763240
 20
2.107600
  0
VERTEX
  8
0
  6
CONTINUOUS
 10
6.774240
 20
2.083840
  0
VERTEX
  8
0
  6
CONTINUOUS
 10
6.787440
 20
2.061400
  0
VERTEX
  8
0
  6
CONTINUOUS
 10
6.802400
 20
2.040280
  0
VERTEX
  8
0
  6
CONTINUOUS
 10
6.819560
 20
2.020480
  0
VERTEX
  8
0
  6
CONTINUOUS
 10
6.838480
 20
2.002440
  0
VERTEX
  8
0
  6
CONTINUOUS
 10
6.870600
 20
1.977800
  0
VERTEX
  8
0
  6
CONTINUOUS
 10
6.907560
 20
1.956240
  0
VERTEX
  8
0
  6
CONTINUOUS
 10
6.948480
 20
1.938640
  0
VERTEX
  8
0
  6
CONTINUOUS
 10
6.963440
 20
1.933360
  0
VERTEX
  8
0
  6
CONTINUOUS
 10
6.966080
 20
1.930720
  0
SEQEND
  8
0
  0
SOLID
  8
0
 62
    15
 10
4.186600
 20
1.580480
 11
4.997080
 21
1.580040
 12
4.134680
 22
1.553640
 13
4.945160
 23
1.553200
  0
POLYLINE
  8
0
  6
CONTINUOUS
 66
     1
 40
0.000000
 41
0.000000
  0
VERTEX
  8
0
  6
CONTINUOUS
 10
4.186600
 20
1.580480
  0
VERTEX
  8
0
  6
CONTINUOUS
 10
4.997080
 20
1.580040
  0
VERTEX
  8
0
  6
CONTINUOUS
 10
4.945160
 20
1.553200
  0
VERTEX
  8
0
  6
CONTINUOUS
 10
4.134680
 20
1.553640
  0
VERTEX
  8
0
  6
CONTINUOUS
 10
4.186600
 20
1.580480
  0
SEQEND
  8
0
  0
SOLID
  8
0
 62
     7
 10
3.671360
 20
2.408560
 11
4.481840
 21
2.408120
 12
3.700400
 22
2.360600
 13
4.510880
 23
2.360160
  0
POLYLINE
  8
0
  6
CONTINUOUS
 66
     1
 40
0.000000
 41
0.000000
  0
VERTEX
  8
0
  6
CONTINUOUS
 10
3.671360
 20
2.408560
  0
VERTEX
  8
0
  6
CONTINUOUS
 10
4.481840
 20
2.408120
  0
VERTEX
  8
0
  6
CONTINUOUS
 10
4.510880
 20
2.360160
  0
VERTEX
  8
0
  6
CONTINUOUS
 10
3.700400
 20
2.360600
  0
VERTEX
  8
0
  6
CONTINUOUS
 10
3.671360
 20
2.408560
  0
SEQEND
  8
0
  0
SOLID
  8
0
 62
     7
 10
3.700400
 20
2.360600
 11
4.510880
 21
2.360160
 12
3.735600
 22
2.320560
 13
4.546080
 23
2.320120
  0
POLYLINE
  8
0
  6
CONTINUOUS
 66
     1
 40
0.000000
 41
0.000000
  0
VERTEX
  8
0
  6
CONTINUOUS
 10
3.700400
 20
2.360600
  0
VERTEX
  8
0
  6
CONTINUOUS
 10
4.510880
 20
2.360160
  0
VERTEX
  8
0
  6
CONTINUOUS
 10
4.546080
 20
2.320120
  0
VERTEX
  8
0
  6
CONTINUOUS
 10
3.735600
 20
2.320560
  0
VERTEX
  8
0
  6
CONTINUOUS
 10
3.700400
 20
2.360600
  0
SEQEND
  8
0
  0
SOLID
  8
0
 62
    15
 10
3.735600
 20
2.320560
 11
4.546080
 21
2.320120
 12
3.776080
 22
2.288440
 13
4.586560
 23
2.288000
  0
POLYLINE
  8
0
  6
CONTINUOUS
 66
     1
 40
0.000000
 41
0.000000
  0
VERTEX
  8
0
  6
CONTINUOUS
 10
3.735600
 20
2.320560
  0
VERTEX
  8
0
  6
CONTINUOUS
 10
4.546080
 20
2.320120
  0
VERTEX
  8
0
  6
CONTINUOUS
 10
4.586560
 20
2.288000
  0
VERTEX
  8
0
  6
CONTINUOUS
 10
3.776080
 20
2.288440
  0
VERTEX
  8
0
  6
CONTINUOUS
 10
3.735600
 20
2.320560
  0
SEQEND
  8
0
  0
SOLID
  8
0
 62
    15
 10
3.776080
 20
2.288440
 11
4.586560
 21
2.288000
 12
3.822280
 22
2.264240
 13
4.633200
 23
2.263800
  0
POLYLINE
  8
0
  6
CONTINUOUS
 66
     1
 40
0.000000
 41
0.000000
  0
VERTEX
  8
0
  6
CONTINUOUS
 10
3.776080
 20
2.288440
  0
VERTEX
  8
0
  6
CONTINUOUS
 10
4.586560
 20
2.288000
  0
VERTEX
  8
0
  6
CONTINUOUS
 10
4.633200
 20
2.263800
  0
VERTEX
  8
0
  6
CONTINUOUS
 10
3.822280
 20
2.264240
  0
VERTEX
  8
0
  6
CONTINUOUS
 10
3.776080
 20
2.288440
  0
SEQEND
  8
0
  0
SOLID
  8
0
 62
    15
 10
3.822280
 20
2.264240
 11
4.633200
 21
2.263800
 12
3.874200
 22
2.247960
 13
4.684680
 23
2.247520
  0
POLYLINE
  8
0
  6
CONTINUOUS
 66
     1
 40
0.000000
 41
0.000000
  0
VERTEX
  8
0
  6
CONTINUOUS
 10
3.822280
 20
2.264240
  0
VERTEX
  8
0
  6
CONTINUOUS
 10
4.633200
 20
2.263800
  0
VERTEX
  8
0
  6
CONTINUOUS
 10
4.684680
 20
2.247520
  0
VERTEX
  8
0
  6
CONTINUOUS
 10
3.874200
 20
2.247960
  0
VERTEX
  8
0
  6
CONTINUOUS
 10
3.822280
 20
2.264240
  0
SEQEND
  8
0
  0
SOLID
  8
0
 62
    15
 10
3.874200
 20
2.247960
 11
4.684680
 21
2.247520
 12
3.930520
 22
2.239600
 13
4.741000
 23
2.239160
  0
POLYLINE
  8
0
  6
CONTINUOUS
 66
     1
 40
0.000000
 41
0.000000
  0
VERTEX
  8
0
  6
CONTINUOUS
 10
3.874200
 20
2.247960
  0
VERTEX
  8
0
  6
CONTINUOUS
 10
4.684680
 20
2.247520
  0
VERTEX
  8
0
  6
CONTINUOUS
 10
4.741000
 20
2.239160
  0
VERTEX
  8
0
  6
CONTINUOUS
 10
3.930520
 20
2.239600
  0
VERTEX
  8
0
  6
CONTINUOUS
 10
3.874200
 20
2.247960
  0
SEQEND
  8
0
  0
SOLID
  8
0
 62
    15
 10
3.930520
 20
2.239600
 11
4.741000
 21
2.239160
 12
3.992120
 22
2.239160
 13
4.802600
 23
2.238720
  0
POLYLINE
  8
0
  6
CONTINUOUS
 66
     1
 40
0.000000
 41
0.000000
  0
VERTEX
  8
0
  6
CONTINUOUS
 10
3.930520
 20
2.239600
  0
VERTEX
  8
0
  6
CONTINUOUS
 10
4.741000
 20
2.239160
  0
VERTEX
  8
0
  6
CONTINUOUS
 10
4.802600
 20
2.238720
  0
VERTEX
  8
0
  6
CONTINUOUS
 10
3.992120
 20
2.239160
  0
VERTEX
  8
0
  6
CONTINUOUS
 10
3.930520
 20
2.239600
  0
SEQEND
  8
0
  0
SOLID
  8
0
 62
     7
 10
3.992120
 20
2.239160
 11
4.802600
 21
2.238720
 12
3.992120
 22
2.126080
 13
4.802600
 23
2.125640
  0
POLYLINE
  8
0
  6
CONTINUOUS
 66
     1
 40
0.000000
 41
0.000000
  0
VERTEX
  8
0
  6
CONTINUOUS
 10
3.992120
 20
2.239160
  0
VERTEX
  8
0
  6
CONTINUOUS
 10
4.802600
 20
2.238720
  0
VERTEX
  8
0
  6
CONTINUOUS
 10
4.802600
 20
2.125640
  0
VERTEX
  8
0
  6
CONTINUOUS
 10
3.992120
 20
2.126080
  0
VERTEX
  8
0
  6
CONTINUOUS
 10
3.992120
 20
2.239160
  0
SEQEND
  8
0
  0
SOLID
  8
0
 62
    15
 10
3.994760
 20
2.126080
 11
4.805240
 21
2.125640
 12
4.035680
 22
2.123440
 13
4.846160
 23
2.123000
  0
POLYLINE
  8
0
  6
CONTINUOUS
 66
     1
 40
0.000000
 41
0.000000
  0
VERTEX
  8
0
  6
CONTINUOUS
 10
3.994760
 20
2.126080
  0
VERTEX
  8
0
  6
CONTINUOUS
 10
4.805240
 20
2.125640
  0
VERTEX
  8
0
  6
CONTINUOUS
 10
4.846160
 20
2.123000
  0
VERTEX
  8
0
  6
CONTINUOUS
 10
4.035680
 20
2.123440
  0
VERTEX
  8
0
  6
CONTINUOUS
 10
3.994760
 20
2.126080
  0
SEQEND
  8
0
  0
SOLID
  8
0
 62
    15
 10
4.035680
 20
2.123440
 11
4.846160
 21
2.123000
 12
4.073960
 22
2.117720
 13
4.884440
 23
2.117280
  0
POLYLINE
  8
0
  6
CONTINUOUS
 66
     1
 40
0.000000
 41
0.000000
  0
VERTEX
  8
0
  6
CONTINUOUS
 10
4.035680
 20
2.123440
  0
VERTEX
  8
0
  6
CONTINUOUS
 10
4.846160
 20
2.123000
  0
VERTEX
  8
0
  6
CONTINUOUS
 10
4.884440
 20
2.117280
  0
VERTEX
  8
0
  6
CONTINUOUS
 10
4.073960
 20
2.117720
  0
VERTEX
  8
0
  6
CONTINUOUS
 10
4.035680
 20
2.123440
  0
SEQEND
  8
0
  0
SOLID
  8
0
 62
    15
 10
4.073960
 20
2.117720
 11
4.884440
 21
2.117280
 12
4.140840
 22
2.097040
 13
4.951320
 23
2.096600
  0
POLYLINE
  8
0
  6
CONTINUOUS
 66
     1
 40
0.000000
 41
0.000000
  0
VERTEX
  8
0
  6
CONTINUOUS
 10
4.073960
 20
2.117720
  0
VERTEX
  8
0
  6
CONTINUOUS
 10
4.884440
 20
2.117280
  0
VERTEX
  8
0
  6
CONTINUOUS
 10
4.951320
 20
2.096600
  0
VERTEX
  8
0
  6
CONTINUOUS
 10
4.140840
 20
2.097040
  0
VERTEX
  8
0
  6
CONTINUOUS
 10
4.073960
 20
2.117720
  0
SEQEND
  8
0
  0
SOLID
  8
0
 62
    15
 10
4.140840
 20
2.097040
 11
4.951320
 21
2.096600
 12
4.196720
 22
2.066240
 13
5.007200
 23
2.065800
  0
POLYLINE
  8
0
  6
CONTINUOUS
 66
     1
 40
0.000000
 41
0.000000
  0
VERTEX
  8
0
  6
CONTINUOUS
 10
4.140840
 20
2.097040
  0
VERTEX
  8
0
  6
CONTINUOUS
 10
4.951320
 20
2.096600
  0
VERTEX
  8
0
  6
CONTINUOUS
 10
5.007200
 20
2.065800
  0
VERTEX
  8
0
  6
CONTINUOUS
 10
4.196720
 20
2.066240
  0
VERTEX
  8
0
  6
CONTINUOUS
 10
4.140840
 20
2.097040
  0
SEQEND
  8
0
  0
SOLID
  8
0
 62
    15
 10
4.196720
 20
2.066240
 11
5.007200
 21
2.065800
 12
4.241160
 22
2.026640
 13
5.051640
 23
2.026200
  0
POLYLINE
  8
0
  6
CONTINUOUS
 66
     1
 40
0.000000
 41
0.000000
  0
VERTEX
  8
0
  6
CONTINUOUS
 10
4.196720
 20
2.066240
  0
VERTEX
  8
0
  6
CONTINUOUS
 10
5.007200
 20
2.065800
  0
VERTEX
  8
0
  6
CONTINUOUS
 10
5.051640
 20
2.026200
  0
VERTEX
  8
0
  6
CONTINUOUS
 10
4.241160
 20
2.026640
  0
VERTEX
  8
0
  6
CONTINUOUS
 10
4.196720
 20
2.066240
  0
SEQEND
  8
0
  0
SOLID
  8
0
 62
     7
 10
4.241160
 20
2.026640
 11
5.051640
 21
2.026200
 12
4.275040
 22
1.980440
 13
5.085520
 23
1.980000
  0
POLYLINE
  8
0
  6
CONTINUOUS
 66
     1
 40
0.000000
 41
0.000000
  0
VERTEX
  8
0
  6
CONTINUOUS
 10
4.241160
 20
2.026640
  0
VERTEX
  8
0
  6
CONTINUOUS
 10
5.051640
 20
2.026200
  0
VERTEX
  8
0
  6
CONTINUOUS
 10
5.085520
 20
1.980000
  0
VERTEX
  8
0
  6
CONTINUOUS
 10
4.275040
 20
1.980440
  0
VERTEX
  8
0
  6
CONTINUOUS
 10
4.241160
 20
2.026640
  0
SEQEND
  8
0
  0
SOLID
  8
0
 62
     7
 10
4.275040
 20
1.980440
 11
5.085520
 21
1.980000
 12
4.298360
 22
1.928960
 13
5.108840
 23
1.928520
  0
POLYLINE
  8
0
  6
CONTINUOUS
 66
     1
 40
0.000000
 41
0.000000
  0
VERTEX
  8
0
  6
CONTINUOUS
 10
4.275040
 20
1.980440
  0
VERTEX
  8
0
  6
CONTINUOUS
 10
5.085520
 20
1.980000
  0
VERTEX
  8
0
  6
CONTINUOUS
 10
5.108840
 20
1.928520
  0
VERTEX
  8
0
  6
CONTINUOUS
 10
4.298360
 20
1.928960
  0
VERTEX
  8
0
  6
CONTINUOUS
 10
4.275040
 20
1.980440
  0
SEQEND
  8
0
  0
SOLID
  8
0
 62
     7
 10
4.298360
 20
1.928960
 11
5.108840
 21
1.928520
 12
4.311120
 22
1.874400
 13
5.121600
 23
1.873960
  0
POLYLINE
  8
0
  6
CONTINUOUS
 66
     1
 40
0.000000
 41
0.000000
  0
VERTEX
  8
0
  6
CONTINUOUS
 10
4.298360
 20
1.928960
  0
VERTEX
  8
0
  6
CONTINUOUS
 10
5.108840
 20
1.928520
  0
VERTEX
  8
0
  6
CONTINUOUS
 10
5.121600
 20
1.873960
  0
VERTEX
  8
0
  6
CONTINUOUS
 10
4.311120
 20
1.874400
  0
VERTEX
  8
0
  6
CONTINUOUS
 10
4.298360
 20
1.928960
  0
SEQEND
  8
0
  0
SOLID
  8
0
 62
     7
 10
4.311120
 20
1.874400
 11
5.121600
 21
1.873960
 12
4.313760
 22
1.818520
 13
5.124240
 23
1.818080
  0
POLYLINE
  8
0
  6
CONTINUOUS
 66
     1
 40
0.000000
 41
0.000000
  0
VERTEX
  8
0
  6
CONTINUOUS
 10
4.311120
 20
1.874400
  0
VERTEX
  8
0
  6
CONTINUOUS
 10
5.121600
 20
1.873960
  0
VERTEX
  8
0
  6
CONTINUOUS
 10
5.124240
 20
1.818080
  0
VERTEX
  8
0
  6
CONTINUOUS
 10
4.313760
 20
1.818520
  0
VERTEX
  8
0
  6
CONTINUOUS
 10
4.311120
 20
1.874400
  0
SEQEND
  8
0
  0
SOLID
  8
0
 62
    15
 10
4.313760
 20
1.818520
 11
5.124240
 21
1.818080
 12
4.306720
 22
1.763080
 13
5.117640
 23
1.762640
  0
POLYLINE
  8
0
  6
CONTINUOUS
 66
     1
 40
0.000000
 41
0.000000
  0
VERTEX
  8
0
  6
CONTINUOUS
 10
4.313760
 20
1.818520
  0
VERTEX
  8
0
  6
CONTINUOUS
 10
5.124240
 20
1.818080
  0
VERTEX
  8
0
  6
CONTINUOUS
 10
5.117640
 20
1.762640
  0
VERTEX
  8
0
  6
CONTINUOUS
 10
4.306720
 20
1.763080
  0
VERTEX
  8
0
  6
CONTINUOUS
 10
4.313760
 20
1.818520
  0
SEQEND
  8
0
  0
SOLID
  8
0
 62
    15
 10
4.306720
 20
1.763080
 11
5.117640
 21
1.762640
 12
4.290440
 22
1.709840
 13
5.100920
 23
1.709400
  0
POLYLINE
  8
0
  6
CONTINUOUS
 66
     1
 40
0.000000
 41
0.000000
  0
VERTEX
  8
0
  6
CONTINUOUS
 10
4.306720
 20
1.763080
  0
VERTEX
  8
0
  6
CONTINUOUS
 10
5.117640
 20
1.762640
  0
VERTEX
  8
0
  6
CONTINUOUS
 10
5.100920
 20
1.709400
  0
VERTEX
  8
0
  6
CONTINUOUS
 10
4.290440
 20
1.709840
  0
VERTEX
  8
0
  6
CONTINUOUS
 10
4.306720
 20
1.763080
  0
SEQEND
  8
0
  0
SOLID
  8
0
 62
    15
 10
4.290440
 20
1.709840
 11
5.100920
 21
1.709400
 12
4.264920
 22
1.660560
 13
5.075400
 23
1.660120
  0
POLYLINE
  8
0
  6
CONTINUOUS
 66
     1
 40
0.000000
 41
0.000000
  0
VERTEX
  8
0
  6
CONTINUOUS
 10
4.290440
 20
1.709840
  0
VERTEX
  8
0
  6
CONTINUOUS
 10
5.100920
 20
1.709400
  0
VERTEX
  8
0
  6
CONTINUOUS
 10
5.075400
 20
1.660120
  0
VERTEX
  8
0
  6
CONTINUOUS
 10
4.264920
 20
1.660560
  0
VERTEX
  8
0
  6
CONTINUOUS
 10
4.290440
 20
1.709840
  0
SEQEND
  8
0
  0
SOLID
  8
0
 62
    15
 10
4.264920
 20
1.660560
 11
5.075400
 21
1.660120
 12
4.230160
 22
1.617000
 13
5.040640
 23
1.616560
  0
POLYLINE
  8
0
  6
CONTINUOUS
 66
     1
 40
0.000000
 41
0.000000
  0
VERTEX
  8
0
  6
CONTINUOUS
 10
4.264920
 20
1.660560
  0
VERTEX
  8
0
  6
CONTINUOUS
 10
5.075400
 20
1.660120
  0
VERTEX
  8
0
  6
CONTINUOUS
 10
5.040640
 20
1.616560
  0
VERTEX
  8
0
  6
CONTINUOUS
 10
4.230160
 20
1.617000
  0
VERTEX
  8
0
  6
CONTINUOUS
 10
4.264920
 20
1.660560
  0
SEQEND
  8
0
  0
SOLID
  8
0
 62
    15
 10
4.230160
 20
1.617000
 11
5.040640
 21
1.616560
 12
4.186600
 22
1.580480
 13
4.997080
 23
1.580040
  0
POLYLINE
  8
0
  6
CONTINUOUS
 66
     1
 40
0.000000
 41
0.000000
  0
VERTEX
  8
0
  6
CONTINUOUS
 10
4.230160
 20
1.617000
  0
VERTEX
  8
0
  6
CONTINUOUS
 10
5.040640
 20
1.616560
  0
VERTEX
  8
0
  6
CONTINUOUS
 10
4.997080
 20
1.580040
  0
VERTEX
  8
0
  6
CONTINUOUS
 10
4.186600
 20
1.580480
  0
VERTEX
  8
0
  6
CONTINUOUS
 10
4.230160
 20
1.617000
  0
SEQEND
  8
0
  0
SOLID
  8
0
 62
     7
 10
3.648480
 20
2.464880
 11
4.458960
 21
2.464440
 12
3.671360
 22
2.408560
 13
4.481840
 23
2.408120
  0
POLYLINE
  8
0
  6
CONTINUOUS
 66
     1
 40
0.000000
 41
0.000000
  0
VERTEX
  8
0
  6
CONTINUOUS
 10
3.648480
 20
2.464880
  0
VERTEX
  8
0
  6
CONTINUOUS
 10
4.458960
 20
2.464440
  0
VERTEX
  8
0
  6
CONTINUOUS
 10
4.481840
 20
2.408120
  0
VERTEX
  8
0
  6
CONTINUOUS
 10
3.671360
 20
2.408560
  0
VERTEX
  8
0
  6
CONTINUOUS
 10
3.648480
 20
2.464880
  0
SEQEND
  8
0
  0
SOLID
  8
0
 62
    15
 10
4.134680
 20
1.553640
 11
4.945160
 21
1.553200
 12
4.074840
 22
1.538240
 13
4.885320
 23
1.537800
  0
POLYLINE
  8
0
  6
CONTINUOUS
 66
     1
 40
0.000000
 41
0.000000
  0
VERTEX
  8
0
  6
CONTINUOUS
 10
4.134680
 20
1.553640
  0
VERTEX
  8
0
  6
CONTINUOUS
 10
4.945160
 20
1.553200
  0
VERTEX
  8
0
  6
CONTINUOUS
 10
4.885320
 20
1.537800
  0
VERTEX
  8
0
  6
CONTINUOUS
 10
4.074840
 20
1.538240
  0
VERTEX
  8
0
  6
CONTINUOUS
 10
4.134680
 20
1.553640
  0
SEQEND
  8
0
  0
SOLID
  8
0
 62
    15
 10
4.074840
 20
1.538240
 11
4.885320
 21
1.537800
 12
4.007080
 22
1.535160
 13
4.817560
 23
1.534720
  0
POLYLINE
  8
0
  6
CONTINUOUS
 66
     1
 40
0.000000
 41
0.000000
  0
VERTEX
  8
0
  6
CONTINUOUS
 10
4.074840
 20
1.538240
  0
VERTEX
  8
0
  6
CONTINUOUS
 10
4.885320
 20
1.537800
  0
VERTEX
  8
0
  6
CONTINUOUS
 10
4.817560
 20
1.534720
  0
VERTEX
  8
0
  6
CONTINUOUS
 10
4.007080
 20
1.535160
  0
VERTEX
  8
0
  6
CONTINUOUS
 10
4.074840
 20
1.538240
  0
SEQEND
  8
0
  0
SOLID
  8
0
 62
     7
 10
3.921720
 20
1.370160
 11
4.732200
 21
1.369720
 12
3.918640
 22
1.317800
 13
4.729560
 23
1.317360
  0
POLYLINE
  8
0
  6
CONTINUOUS
 66
     1
 40
0.000000
 41
0.000000
  0
VERTEX
  8
0
  6
CONTINUOUS
 10
3.921720
 20
1.370160
  0
VERTEX
  8
0
  6
CONTINUOUS
 10
4.732200
 20
1.369720
  0
VERTEX
  8
0
  6
CONTINUOUS
 10
4.729560
 20
1.317360
  0
VERTEX
  8
0
  6
CONTINUOUS
 10
3.918640
 20
1.317800
  0
VERTEX
  8
0
  6
CONTINUOUS
 10
3.921720
 20
1.370160
  0
SEQEND
  8
0
  0
SOLID
  8
0
 62
    15
 10
4.007080
 20
1.370160
 11
4.817560
 21
1.369720
 12
3.921720
 22
1.370160
 13
4.732200
 23
1.369720
  0
POLYLINE
  8
0
  6
CONTINUOUS
 66
     1
 40
0.000000
 41
0.000000
  0
VERTEX
  8
0
  6
CONTINUOUS
 10
4.007080
 20
1.370160
  0
VERTEX
  8
0
  6
CONTINUOUS
 10
4.817560
 20
1.369720
  0
VERTEX
  8
0
  6
CONTINUOUS
 10
4.732200
 20
1.369720
  0
VERTEX
  8
0
  6
CONTINUOUS
 10
3.921720
 20
1.370160
  0
VERTEX
  8
0
  6
CONTINUOUS
 10
4.007080
 20
1.370160
  0
SEQEND
  8
0
  0
SOLID
  8
0
 62
     7
 10
4.007080
 20
1.535160
 11
4.817560
 21
1.534720
 12
4.007080
 22
1.370160
 13
4.817560
 23
1.369720
  0
POLYLINE
  8
0
  6
CONTINUOUS
 66
     1
 40
0.000000
 41
0.000000
  0
VERTEX
  8
0
  6
CONTINUOUS
 10
4.007080
 20
1.535160
  0
VERTEX
  8
0
  6
CONTINUOUS
 10
4.817560
 20
1.534720
  0
VERTEX
  8
0
  6
CONTINUOUS
 10
4.817560
 20
1.369720
  0
VERTEX
  8
0
  6
CONTINUOUS
 10
4.007080
 20
1.370160
  0
VERTEX
  8
0
  6
CONTINUOUS
 10
4.007080
 20
1.535160
  0
SEQEND
  8
0
  0
SOLID
  8
0
 62
    15
 10
3.918640
 20
1.317800
 11
4.729560
 21
1.317360
 12
3.911160
 22
1.275120
 13
4.721640
 23
1.274680
  0
POLYLINE
  8
0
  6
CONTINUOUS
 66
     1
 40
0.000000
 41
0.000000
  0
VERTEX
  8
0
  6
CONTINUOUS
 10
3.918640
 20
1.317800
  0
VERTEX
  8
0
  6
CONTINUOUS
 10
4.729560
 20
1.317360
  0
VERTEX
  8
0
  6
CONTINUOUS
 10
4.721640
 20
1.274680
  0
VERTEX
  8
0
  6
CONTINUOUS
 10
3.911160
 20
1.275120
  0
VERTEX
  8
0
  6
CONTINUOUS
 10
3.918640
 20
1.317800
  0
SEQEND
  8
0
  0
SOLID
  8
0
 62
    15
 10
3.911160
 20
1.275120
 11
4.721640
 21
1.274680
 12
3.899280
 22
1.239920
 13
4.709760
 23
1.239480
  0
POLYLINE
  8
0
  6
CONTINUOUS
 66
     1
 40
0.000000
 41
0.000000
  0
VERTEX
  8
0
  6
CONTINUOUS
 10
3.911160
 20
1.275120
  0
VERTEX
  8
0
  6
CONTINUOUS
 10
4.721640
 20
1.274680
  0
VERTEX
  8
0
  6
CONTINUOUS
 10
4.709760
 20
1.239480
  0
VERTEX
  8
0
  6
CONTINUOUS
 10
3.899280
 20
1.239920
  0
VERTEX
  8
0
  6
CONTINUOUS
 10
3.911160
 20
1.275120
  0
SEQEND
  8
0
  0
SOLID
  8
0
 62
    15
 10
3.899280
 20
1.239920
 11
4.709760
 21
1.239480
 12
3.883440
 22
1.210440
 13
4.693920
 23
1.210000
  0
POLYLINE
  8
0
  6
CONTINUOUS
 66
     1
 40
0.000000
 41
0.000000
  0
VERTEX
  8
0
  6
CONTINUOUS
 10
3.899280
 20
1.239920
  0
VERTEX
  8
0
  6
CONTINUOUS
 10
4.709760
 20
1.239480
  0
VERTEX
  8
0
  6
CONTINUOUS
 10
4.693920
 20
1.210000
  0
VERTEX
  8
0
  6
CONTINUOUS
 10
3.883440
 20
1.210440
  0
VERTEX
  8
0
  6
CONTINUOUS
 10
3.899280
 20
1.239920
  0
SEQEND
  8
0
  0
SOLID
  8
0
 62
    15
 10
3.883440
 20
1.210440
 11
4.693920
 21
1.210000
 12
3.864960
 22
1.185800
 13
4.675440
 23
1.185360
  0
POLYLINE
  8
0
  6
CONTINUOUS
 66
     1
 40
0.000000
 41
0.000000
  0
VERTEX
  8
0
  6
CONTINUOUS
 10
3.883440
 20
1.210440
  0
VERTEX
  8
0
  6
CONTINUOUS
 10
4.693920
 20
1.210000
  0
VERTEX
  8
0
  6
CONTINUOUS
 10
4.675440
 20
1.185360
  0
VERTEX
  8
0
  6
CONTINUOUS
 10
3.864960
 20
1.185800
  0
VERTEX
  8
0
  6
CONTINUOUS
 10
3.883440
 20
1.210440
  0
SEQEND
  8
0
  0
SOLID
  8
0
 62
    15
 10
3.864960
 20
1.185800
 11
4.675440
 21
1.185360
 12
3.843840
 22
1.164680
 13
4.654320
 23
1.164240
  0
POLYLINE
  8
0
  6
CONTINUOUS
 66
     1
 40
0.000000
 41
0.000000
  0
VERTEX
  8
0
  6
CONTINUOUS
 10
3.864960
 20
1.185800
  0
VERTEX
  8
0
  6
CONTINUOUS
 10
4.675440
 20
1.185360
  0
VERTEX
  8
0
  6
CONTINUOUS
 10
4.654320
 20
1.164240
  0
VERTEX
  8
0
  6
CONTINUOUS
 10
3.843840
 20
1.164680
  0
VERTEX
  8
0
  6
CONTINUOUS
 10
3.864960
 20
1.185800
  0
SEQEND
  8
0
  0
SOLID
  8
0
 62
    15
 10
3.843840
 20
1.164680
 11
4.654320
 21
1.164240
 12
3.820960
 22
1.145320
 13
4.631440
 23
1.144880
  0
POLYLINE
  8
0
  6
CONTINUOUS
 66
     1
 40
0.000000
 41
0.000000
  0
VERTEX
  8
0
  6
CONTINUOUS
 10
3.843840
 20
1.164680
  0
VERTEX
  8
0
  6
CONTINUOUS
 10
4.654320
 20
1.164240
  0
VERTEX
  8
0
  6
CONTINUOUS
 10
4.631440
 20
1.144880
  0
VERTEX
  8
0
  6
CONTINUOUS
 10
3.820960
 20
1.145320
  0
VERTEX
  8
0
  6
CONTINUOUS
 10
3.843840
 20
1.164680
  0
SEQEND
  8
0
  0
SOLID
  8
0
 62
    15
 10
3.820960
 20
1.145320
 11
4.631440
 21
1.144880
 12
3.809520
 22
1.136080
 13
4.620000
 23
1.135640
  0
POLYLINE
  8
0
  6
CONTINUOUS
 66
     1
 40
0.000000
 41
0.000000
  0
VERTEX
  8
0
  6
CONTINUOUS
 10
3.820960
 20
1.145320
  0
VERTEX
  8
0
  6
CONTINUOUS
 10
4.631440
 20
1.144880
  0
VERTEX
  8
0
  6
CONTINUOUS
 10
4.620000
 20
1.135640
  0
VERTEX
  8
0
  6
CONTINUOUS
 10
3.809520
 20
1.136080
  0
VERTEX
  8
0
  6
CONTINUOUS
 10
3.820960
 20
1.145320
  0
SEQEND
  8
0
  0
SOLID
  8
0
 62
    15
 10
3.809520
 20
1.136080
 11
4.620000
 21
1.135640
 12
3.797640
 22
1.126840
 13
4.608120
 23
1.126400
  0
POLYLINE
  8
0
  6
CONTINUOUS
 66
     1
 40
0.000000
 41
0.000000
  0
VERTEX
  8
0
  6
CONTINUOUS
 10
3.809520
 20
1.136080
  0
VERTEX
  8
0
  6
CONTINUOUS
 10
4.620000
 20
1.135640
  0
VERTEX
  8
0
  6
CONTINUOUS
 10
4.608120
 20
1.126400
  0
VERTEX
  8
0
  6
CONTINUOUS
 10
3.797640
 20
1.126840
  0
VERTEX
  8
0
  6
CONTINUOUS
 10
3.809520
 20
1.136080
  0
SEQEND
  8
0
  0
SOLID
  8
0
 62
    15
 10
3.797640
 20
1.126840
 11
4.608120
 21
1.126400
 12
3.749680
 22
1.086800
 13
4.560160
 23
1.086360
  0
POLYLINE
  8
0
  6
CONTINUOUS
 66
     1
 40
0.000000
 41
0.000000
  0
VERTEX
  8
0
  6
CONTINUOUS
 10
3.797640
 20
1.126840
  0
VERTEX
  8
0
  6
CONTINUOUS
 10
4.608120
 20
1.126400
  0
VERTEX
  8
0
  6
CONTINUOUS
 10
4.560160
 20
1.086360
  0
VERTEX
  8
0
  6
CONTINUOUS
 10
3.749680
 20
1.086800
  0
VERTEX
  8
0
  6
CONTINUOUS
 10
3.797640
 20
1.126840
  0
SEQEND
  8
0
  0
SOLID
  8
0
 62
    15
 10
3.749680
 20
1.086800
 11
4.560160
 21
1.086360
 12
3.727240
 22
1.063040
 13
4.537720
 23
1.062600
  0
POLYLINE
  8
0
  6
CONTINUOUS
 66
     1
 40
0.000000
 41
0.000000
  0
VERTEX
  8
0
  6
CONTINUOUS
 10
3.749680
 20
1.086800
  0
VERTEX
  8
0
  6
CONTINUOUS
 10
4.560160
 20
1.086360
  0
VERTEX
  8
0
  6
CONTINUOUS
 10
4.537720
 20
1.062600
  0
VERTEX
  8
0
  6
CONTINUOUS
 10
3.727240
 20
1.063040
  0
VERTEX
  8
0
  6
CONTINUOUS
 10
3.749680
 20
1.086800
  0
SEQEND
  8
0
  0
SOLID
  8
0
 62
    15
 10
3.727240
 20
1.063040
 11
4.537720
 21
1.062600
 12
3.706120
 22
1.034440
 13
4.516600
 23
1.034000
  0
POLYLINE
  8
0
  6
CONTINUOUS
 66
     1
 40
0.000000
 41
0.000000
  0
VERTEX
  8
0
  6
CONTINUOUS
 10
3.727240
 20
1.063040
  0
VERTEX
  8
0
  6
CONTINUOUS
 10
4.537720
 20
1.062600
  0
VERTEX
  8
0
  6
CONTINUOUS
 10
4.516600
 20
1.034000
  0
VERTEX
  8
0
  6
CONTINUOUS
 10
3.706120
 20
1.034440
  0
VERTEX
  8
0
  6
CONTINUOUS
 10
3.727240
 20
1.063040
  0
SEQEND
  8
0
  0
SOLID
  8
0
 62
    15
 10
3.706120
 20
1.034440
 11
4.516600
 21
1.034000
 12
3.687640
 22
1.000120
 13
4.498120
 23
0.999680
  0
POLYLINE
  8
0
  6
CONTINUOUS
 66
     1
 40
0.000000
 41
0.000000
  0
VERTEX
  8
0
  6
CONTINUOUS
 10
3.706120
 20
1.034440
  0
VERTEX
  8
0
  6
CONTINUOUS
 10
4.516600
 20
1.034000
  0
VERTEX
  8
0
  6
CONTINUOUS
 10
4.498120
 20
0.999680
  0
VERTEX
  8
0
  6
CONTINUOUS
 10
3.687640
 20
1.000120
  0
VERTEX
  8
0
  6
CONTINUOUS
 10
3.706120
 20
1.034440
  0
SEQEND
  8
0
  0
SOLID
  8
0
 62
    15
 10
3.687640
 20
1.000120
 11
4.498120
 21
0.999680
 12
3.671800
 22
0.958760
 13
4.482280
 23
0.958320
  0
POLYLINE
  8
0
  6
CONTINUOUS
 66
     1
 40
0.000000
 41
0.000000
  0
VERTEX
  8
0
  6
CONTINUOUS
 10
3.687640
 20
1.000120
  0
VERTEX
  8
0
  6
CONTINUOUS
 10
4.498120
 20
0.999680
  0
VERTEX
  8
0
  6
CONTINUOUS
 10
4.482280
 20
0.958320
  0
VERTEX
  8
0
  6
CONTINUOUS
 10
3.671800
 20
0.958760
  0
VERTEX
  8
0
  6
CONTINUOUS
 10
3.687640
 20
1.000120
  0
SEQEND
  8
0
  0
SOLID
  8
0
 62
    15
 10
3.671800
 20
0.958760
 11
4.482280
 21
0.958320
 12
3.659920
 22
0.909480
 13
4.470400
 23
0.909040
  0
POLYLINE
  8
0
  6
CONTINUOUS
 66
     1
 40
0.000000
 41
0.000000
  0
VERTEX
  8
0
  6
CONTINUOUS
 10
3.671800
 20
0.958760
  0
VERTEX
  8
0
  6
CONTINUOUS
 10
4.482280
 20
0.958320
  0
VERTEX
  8
0
  6
CONTINUOUS
 10
4.470400
 20
0.909040
  0
VERTEX
  8
0
  6
CONTINUOUS
 10
3.659920
 20
0.909480
  0
VERTEX
  8
0
  6
CONTINUOUS
 10
3.671800
 20
0.958760
  0
SEQEND
  8
0
  0
SOLID
  8
0
 62
    15
 10
3.652440
 20
0.850080
 11
4.462920
 21
0.849640
 12
3.448280
 22
0.850080
 13
4.258760
 23
0.849640
  0
POLYLINE
  8
0
  6
CONTINUOUS
 66
     1
 40
0.000000
 41
0.000000
  0
VERTEX
  8
0
  6
CONTINUOUS
 10
3.652440
 20
0.850080
  0
VERTEX
  8
0
  6
CONTINUOUS
 10
4.462920
 20
0.849640
  0
VERTEX
  8
0
  6
CONTINUOUS
 10
4.258760
 20
0.849640
  0
VERTEX
  8
0
  6
CONTINUOUS
 10
3.448280
 20
0.850080
  0
VERTEX
  8
0
  6
CONTINUOUS
 10
3.652440
 20
0.850080
  0
SEQEND
  8
0
  0
SOLID
  8
0
 62
    15
 10
3.659920
 20
0.909480
 11
4.470400
 21
0.909040
 12
3.652440
 22
0.850080
 13
4.462920
 23
0.849640
  0
POLYLINE
  8
0
  6
CONTINUOUS
 66
     1
 40
0.000000
 41
0.000000
  0
VERTEX
  8
0
  6
CONTINUOUS
 10
3.659920
 20
0.909480
  0
VERTEX
  8
0
  6
CONTINUOUS
 10
4.470400
 20
0.909040
  0
VERTEX
  8
0
  6
CONTINUOUS
 10
4.462920
 20
0.849640
  0
VERTEX
  8
0
  6
CONTINUOUS
 10
3.652440
 20
0.850080
  0
VERTEX
  8
0
  6
CONTINUOUS
 10
3.659920
 20
0.909480
  0
SEQEND
  8
0
  0
SOLID
  8
0
 62
    15
 10
3.645400
 20
2.467520
 11
4.456320
 21
2.467080
 12
3.648480
 22
2.464880
 13
4.458960
 23
2.464440
  0
POLYLINE
  8
0
  6
CONTINUOUS
 66
     1
 40
0.000000
 41
0.000000
  0
VERTEX
  8
0
  6
CONTINUOUS
 10
3.645400
 20
2.467520
  0
VERTEX
  8
0
  6
CONTINUOUS
 10
4.456320
 20
2.467080
  0
VERTEX
  8
0
  6
CONTINUOUS
 10
4.458960
 20
2.464440
  0
VERTEX
  8
0
  6
CONTINUOUS
 10
3.648480
 20
2.464880
  0
VERTEX
  8
0
  6
CONTINUOUS
 10
3.645400
 20
2.467520
  0
SEQEND
  8
0
  0
POLYLINE
  8
0
  6
CONTINUOUS
 66
     1
 40
0.000000
 41
0.000000
  0
VERTEX
  8
0
  6
CONTINUOUS
 10
3.648480
 20
2.464880
  0
VERTEX
  8
0
  6
CONTINUOUS
 10
3.671360
 20
2.408560
  0
VERTEX
  8
0
  6
CONTINUOUS
 10
3.700400
 20
2.360600
  0
VERTEX
  8
0
  6
CONTINUOUS
 10
3.735600
 20
2.320560
  0
VERTEX
  8
0
  6
CONTINUOUS
 10
3.776080
 20
2.288440
  0
VERTEX
  8
0
  6
CONTINUOUS
 10
3.822280
 20
2.264240
  0
VERTEX
  8
0
  6
CONTINUOUS
 10
3.874200
 20
2.247960
  0
VERTEX
  8
0
  6
CONTINUOUS
 10
3.930520
 20
2.239600
  0
VERTEX
  8
0
  6
CONTINUOUS
 10
3.992120
 20
2.239160
  0
VERTEX
  8
0
  6
CONTINUOUS
 10
3.992120
 20
2.126080
  0
VERTEX
  8
0
  6
CONTINUOUS
 10
3.994760
 20
2.126080
  0
VERTEX
  8
0
  6
CONTINUOUS
 10
4.035680
 20
2.123440
  0
VERTEX
  8
0
  6
CONTINUOUS
 10
4.073960
 20
2.117720
  0
VERTEX
  8
0
  6
CONTINUOUS
 10
4.140840
 20
2.097040
  0
VERTEX
  8
0
  6
CONTINUOUS
 10
4.196720
 20
2.066240
  0
VERTEX
  8
0
  6
CONTINUOUS
 10
4.241160
 20
2.026640
  0
VERTEX
  8
0
  6
CONTINUOUS
 10
4.275040
 20
1.980440
  0
VERTEX
  8
0
  6
CONTINUOUS
 10
4.298360
 20
1.928960
  0
VERTEX
  8
0
  6
CONTINUOUS
 10
4.311120
 20
1.874400
  0
VERTEX
  8
0
  6
CONTINUOUS
 10
4.313760
 20
1.818520
  0
VERTEX
  8
0
  6
CONTINUOUS
 10
4.306720
 20
1.763080
  0
VERTEX
  8
0
  6
CONTINUOUS
 10
4.290440
 20
1.709840
  0
VERTEX
  8
0
  6
CONTINUOUS
 10
4.264920
 20
1.660560
  0
VERTEX
  8
0
  6
CONTINUOUS
 10
4.230160
 20
1.617000
  0
VERTEX
  8
0
  6
CONTINUOUS
 10
4.186600
 20
1.580480
  0
VERTEX
  8
0
  6
CONTINUOUS
 10
4.134680
 20
1.553640
  0
VERTEX
  8
0
  6
CONTINUOUS
 10
4.074840
 20
1.538240
  0
VERTEX
  8
0
  6
CONTINUOUS
 10
4.007080
 20
1.535160
  0
VERTEX
  8
0
  6
CONTINUOUS
 10
4.007080
 20
1.370160
  0
VERTEX
  8
0
  6
CONTINUOUS
 10
3.921720
 20
1.370160
  0
VERTEX
  8
0
  6
CONTINUOUS
 10
3.918640
 20
1.317800
  0
VERTEX
  8
0
  6
CONTINUOUS
 10
3.911160
 20
1.275120
  0
VERTEX
  8
0
  6
CONTINUOUS
 10
3.899280
 20
1.239920
  0
VERTEX
  8
0
  6
CONTINUOUS
 10
3.883440
 20
1.210440
  0
VERTEX
  8
0
  6
CONTINUOUS
 10
3.864960
 20
1.185800
  0
VERTEX
  8
0
  6
CONTINUOUS
 10
3.843840
 20
1.164680
  0
VERTEX
  8
0
  6
CONTINUOUS
 10
3.820960
 20
1.145320
  0
VERTEX
  8
0
  6
CONTINUOUS
 10
3.809520
 20
1.136080
  0
VERTEX
  8
0
  6
CONTINUOUS
 10
3.797640
 20
1.126840
  0
VERTEX
  8
0
  6
CONTINUOUS
 10
3.749680
 20
1.086800
  0
VERTEX
  8
0
  6
CONTINUOUS
 10
3.727240
 20
1.063040
  0
VERTEX
  8
0
  6
CONTINUOUS
 10
3.706120
 20
1.034440
  0
VERTEX
  8
0
  6
CONTINUOUS
 10
3.687640
 20
1.000120
  0
VERTEX
  8
0
  6
CONTINUOUS
 10
3.671800
 20
0.958760
  0
VERTEX
  8
0
  6
CONTINUOUS
 10
3.659920
 20
0.909480
  0
VERTEX
  8
0
  6
CONTINUOUS
 10
3.652440
 20
0.850080
  0
VERTEX
  8
0
  6
CONTINUOUS
 10
3.448280
 20
0.850080
  0
VERTEX
  8
0
  6
CONTINUOUS
 10
3.448280
 20
2.467520
  0
VERTEX
  8
0
  6
CONTINUOUS
 10
3.645400
 20
2.467520
  0
VERTEX
  8
0
  6
CONTINUOUS
 10
3.648480
 20
2.464880
  0
SEQEND
  8
0
  0
TEXT
  8
0
 10
4.082320
 20
0.547360
 40
0.138007
  1
BA  3
 41
1.000000
  7
SN0
 71
     0
 72
     5
 11
4.487674
 21
0.547360
  0
TEXT
  8
0
 10
3.834160
 20
0.355960
 40
0.138007
  1
7/8" x 1-5/8"
 41
1.000000
  7
SN0
 71
     0
 72
     5
 11
4.733768
 21
0.355960
  0
TEXT
  8
0
 10
7.183440
 20
2.537480
 40
0.138007
  1
astragal
 41
1.000000
  7
SN0
 71
     0
 72
     5
 11
7.772652
 21
2.537480
  0
TEXT
  8
0
 10
7.414440
 20
2.277000
 40
0.138007
  1
3
 41
1.000000
  7
SN0
 71
     0
 72
     5
 11
7.507018
 21
2.277000
  0
ENDSEC
  0
EOF
