  0
SECTION
  2
HEADER
  9
$ACADVER
  1
AC1006
  9
$EXTMIN
 10
0.887920
 20
0.530640
  9
$EXTMAX
 10
7.909440
 20
3.282840
  9
$LTSCALE
 40
0.044000
  9
$PDMODE
 70
    35
  9
$PDSIZE
 40
0.035200
  0
ENDSEC
  0
SECTION
  2
TABLES
  0
TABLE
  2
LTYPE
 70
     9
  0
LTYPE
  2
CONTINUOUS
 70
    64
  3
Solid line
 72
    65
 73
     0
 40
0.000000
  0
LTYPE
  2
DASHED
 70
    64
  3
__ __ __ __ __ __ __ __ __ __ __ __ __ __ __
 72
    65
 73
     2
 40
0.000330
 49
0.000220
 49
-0.000110
  0
LTYPE
  2
HIDDEN
 70
    64
  3
 _ _ _ _ _ _ _ _ _ _ _ _ _ _ _ _ _ _ _ _ _ _
 72
    65
 73
     2
 40
0.000165
 49
0.000110
 49
-0.000055
  0
LTYPE
  2
CENTER
 70
    64
  3
____ _ ____ _ ____ _ ____ _ ____ _ ____ _ ____
 72
    65
 73
     4
 40
0.000880
 49
0.000550
 49
-0.000110
 49
0.000110
 49
-0.000110
  0
LTYPE
  2
PHANTOM
 70
    64
  3
_____ _ _ _____ _ _ _____ _ _ _____ _ _ ____
 72
    65
 73
     6
 40
0.001100
 49
0.000550
 49
-0.000110
 49
0.000110
 49
-0.000110
 49
0.000110
 49
-0.000110
  0
LTYPE
  2
DOT
 70
    64
  3
...............................................
 72
    65
 73
     2
 40
0.000110
 49
0.000000
 49
-0.000110
  0
LTYPE
  2
DASHDOT
 70
    64
  3
__ . __ . __ . __ . __ . __ . __ . __ . __ . __
 72
    65
 73
     4
 40
0.000440
 49
0.000220
 49
-0.000110
 49
0.000000
 49
-0.000110
  0
LTYPE
  2
BORDER
 70
    64
  3
__ __ . __ __ . __ __ . __ __ . __ __ . __ __
 72
    65
 73
     6
 40
0.000770
 49
0.000220
 49
-0.000110
 49
0.000220
 49
-0.000110
 49
0.000000
 49
-0.000110
  0
LTYPE
  2
DIVIDE
 70
    64
  3
__ . . __ . . __ . . __ . . __ . . __ . . __
 72
    65
 73
     6
 40
0.000550
 49
0.000220
 49
-0.000110
 49
0.000000
 49
-0.000110
 49
0.000000
 49
-0.000110
  0
LTYPE
  2
DOTDOT
 70
    64
  3
 . .  . .  . .  . .  . .  . . 
 72
    65
 73
     5
 40
0.000242
 49
-0.000110
 49
0.000000
 49
-0.000110
 49
0.000000
 49
-0.000110
  0
ENDTAB
  0
TABLE
  2
STYLE
 70
     2
  0
STYLE
 70
     0
  2
SN0
 40
0.000000
 41
0.000440
 50
0.000000
 71
     0
 42
0.000000
  3
ROMAND
  0
STYLE
 70
    68
  2
SV0
 40
0.000000
 41
0.000440
 50
0.000000
 71
     0
 42
0.000000
  3
ROMAND
  0
ENDTAB
  0
TABLE
  2
LAYER
 70
     3
  0
LAYER
  2
FOREGROUND
 70
    64
 62
     7
  6
CONTINUOUS
  0
LAYER
  2
BACKGROUND
 70
    65
 62
    -7
  6
CONTINUOUS
  0
LAYER
  2
0
 70
    64
 62
     7
  6
CONTINUOUS
  0
ENDTAB
  0
ENDSEC
  0
SECTION
  2
ENTITIES
  0
POLYLINE
  8
FOREGROUND
  6
CONTINUOUS
 66
     1
 40
0.000000
 41
0.000000
  0
VERTEX
  8
FOREGROUND
  6
CONTINUOUS
 10
0.000000
 20
3.813480
  0
VERTEX
  8
FOREGROUND
  6
CONTINUOUS
 10
8.499920
 20
3.813480
  0
VERTEX
  8
FOREGROUND
  6
CONTINUOUS
 10
8.499920
 20
-7.186520
  0
VERTEX
  8
FOREGROUND
  6
CONTINUOUS
 10
0.000000
 20
-7.186520
  0
VERTEX
  8
FOREGROUND
  6
CONTINUOUS
 10
0.000000
 20
3.813480
  0
SEQEND
  8
0
  0
POLYLINE
  8
FOREGROUND
  6
CONTINUOUS
 66
     1
 40
0.000000
 41
0.000000
  0
VERTEX
  8
FOREGROUND
  6
CONTINUOUS
 10
0.000000
 20
3.813480
  0
VERTEX
  8
FOREGROUND
  6
CONTINUOUS
 10
8.499920
 20
3.813480
  0
VERTEX
  8
FOREGROUND
  6
CONTINUOUS
 10
8.499920
 20
-7.186520
  0
VERTEX
  8
FOREGROUND
  6
CONTINUOUS
 10
0.000000
 20
-7.186520
  0
VERTEX
  8
FOREGROUND
  6
CONTINUOUS
 10
0.000000
 20
3.813480
  0
SEQEND
  8
0
  0
TEXT
  8
0
 10
2.814240
 20
0.765160
 40
0.138066
  1
BA  2
 41
1.000000
  7
SN0
 71
     0
 72
     5
 11
3.220084
 21
0.765160
  0
TEXT
  8
0
 10
2.566080
 20
0.573760
 40
0.138066
  1
3/4" x 3-1/2"
 41
1.000000
  7
SN0
 71
     0
 72
     5
 11
3.467292
 21
0.573760
  0
SOLID
  8
0
 62
    15
 10
1.855480
 20
1.815000
 11
2.503160
 21
1.431320
 12
1.847120
 22
1.588840
 13
2.495240
 23
1.205160
  0
POLYLINE
  8
0
  6
CONTINUOUS
 66
     1
 40
0.000000
 41
0.000000
  0
VERTEX
  8
0
  6
CONTINUOUS
 10
1.855480
 20
1.815000
  0
VERTEX
  8
0
  6
CONTINUOUS
 10
2.503160
 20
1.431320
  0
VERTEX
  8
0
  6
CONTINUOUS
 10
2.495240
 20
1.205160
  0
VERTEX
  8
0
  6
CONTINUOUS
 10
1.847120
 20
1.588840
  0
VERTEX
  8
0
  6
CONTINUOUS
 10
1.855480
 20
1.815000
  0
SEQEND
  8
0
  0
SOLID
  8
0
 62
    15
 10
3.124880
 20
2.911040
 11
3.772560
 21
2.527360
 12
3.006960
 22
2.905320
 13
3.655080
 23
2.521640
  0
POLYLINE
  8
0
  6
CONTINUOUS
 66
     1
 40
0.000000
 41
0.000000
  0
VERTEX
  8
0
  6
CONTINUOUS
 10
3.124880
 20
2.911040
  0
VERTEX
  8
0
  6
CONTINUOUS
 10
3.772560
 20
2.527360
  0
VERTEX
  8
0
  6
CONTINUOUS
 10
3.655080
 20
2.521640
  0
VERTEX
  8
0
  6
CONTINUOUS
 10
3.006960
 20
2.905320
  0
VERTEX
  8
0
  6
CONTINUOUS
 10
3.124880
 20
2.911040
  0
SEQEND
  8
0
  0
SOLID
  8
0
 62
    15
 10
3.006960
 20
2.905320
 11
3.655080
 21
2.521640
 12
2.892560
 22
2.875400
 13
3.540680
 23
2.491720
  0
POLYLINE
  8
0
  6
CONTINUOUS
 66
     1
 40
0.000000
 41
0.000000
  0
VERTEX
  8
0
  6
CONTINUOUS
 10
3.006960
 20
2.905320
  0
VERTEX
  8
0
  6
CONTINUOUS
 10
3.655080
 20
2.521640
  0
VERTEX
  8
0
  6
CONTINUOUS
 10
3.540680
 20
2.491720
  0
VERTEX
  8
0
  6
CONTINUOUS
 10
2.892560
 20
2.875400
  0
VERTEX
  8
0
  6
CONTINUOUS
 10
3.006960
 20
2.905320
  0
SEQEND
  8
0
  0
SOLID
  8
0
 62
    15
 10
2.892560
 20
2.875400
 11
3.540680
 21
2.491720
 12
2.784320
 22
2.825240
 13
3.432000
 23
2.441560
  0
POLYLINE
  8
0
  6
CONTINUOUS
 66
     1
 40
0.000000
 41
0.000000
  0
VERTEX
  8
0
  6
CONTINUOUS
 10
2.892560
 20
2.875400
  0
VERTEX
  8
0
  6
CONTINUOUS
 10
3.540680
 20
2.491720
  0
VERTEX
  8
0
  6
CONTINUOUS
 10
3.432000
 20
2.441560
  0
VERTEX
  8
0
  6
CONTINUOUS
 10
2.784320
 20
2.825240
  0
VERTEX
  8
0
  6
CONTINUOUS
 10
2.892560
 20
2.875400
  0
SEQEND
  8
0
  0
SOLID
  8
0
 62
    15
 10
2.784320
 20
2.825240
 11
3.432000
 21
2.441560
 12
2.684440
 22
2.757480
 13
3.332560
 23
2.373800
  0
POLYLINE
  8
0
  6
CONTINUOUS
 66
     1
 40
0.000000
 41
0.000000
  0
VERTEX
  8
0
  6
CONTINUOUS
 10
2.784320
 20
2.825240
  0
VERTEX
  8
0
  6
CONTINUOUS
 10
3.432000
 20
2.441560
  0
VERTEX
  8
0
  6
CONTINUOUS
 10
3.332560
 20
2.373800
  0
VERTEX
  8
0
  6
CONTINUOUS
 10
2.684440
 20
2.757480
  0
VERTEX
  8
0
  6
CONTINUOUS
 10
2.784320
 20
2.825240
  0
SEQEND
  8
0
  0
SOLID
  8
0
 62
    15
 10
2.684440
 20
2.757480
 11
3.332560
 21
2.373800
 12
2.596000
 22
2.676520
 13
3.244120
 23
2.292840
  0
POLYLINE
  8
0
  6
CONTINUOUS
 66
     1
 40
0.000000
 41
0.000000
  0
VERTEX
  8
0
  6
CONTINUOUS
 10
2.684440
 20
2.757480
  0
VERTEX
  8
0
  6
CONTINUOUS
 10
3.332560
 20
2.373800
  0
VERTEX
  8
0
  6
CONTINUOUS
 10
3.244120
 20
2.292840
  0
VERTEX
  8
0
  6
CONTINUOUS
 10
2.596000
 20
2.676520
  0
VERTEX
  8
0
  6
CONTINUOUS
 10
2.684440
 20
2.757480
  0
SEQEND
  8
0
  0
SOLID
  8
0
 62
    15
 10
2.596000
 20
2.676520
 11
3.244120
 21
2.292840
 12
2.522080
 22
2.584560
 13
3.170200
 23
2.200880
  0
POLYLINE
  8
0
  6
CONTINUOUS
 66
     1
 40
0.000000
 41
0.000000
  0
VERTEX
  8
0
  6
CONTINUOUS
 10
2.596000
 20
2.676520
  0
VERTEX
  8
0
  6
CONTINUOUS
 10
3.244120
 20
2.292840
  0
VERTEX
  8
0
  6
CONTINUOUS
 10
3.170200
 20
2.200880
  0
VERTEX
  8
0
  6
CONTINUOUS
 10
2.522080
 20
2.584560
  0
VERTEX
  8
0
  6
CONTINUOUS
 10
2.596000
 20
2.676520
  0
SEQEND
  8
0
  0
SOLID
  8
0
 62
    15
 10
2.522080
 20
2.584560
 11
3.170200
 21
2.200880
 12
2.464880
 22
2.485560
 13
3.113000
 23
2.101880
  0
POLYLINE
  8
0
  6
CONTINUOUS
 66
     1
 40
0.000000
 41
0.000000
  0
VERTEX
  8
0
  6
CONTINUOUS
 10
2.522080
 20
2.584560
  0
VERTEX
  8
0
  6
CONTINUOUS
 10
3.170200
 20
2.200880
  0
VERTEX
  8
0
  6
CONTINUOUS
 10
3.113000
 20
2.101880
  0
VERTEX
  8
0
  6
CONTINUOUS
 10
2.464880
 20
2.485560
  0
VERTEX
  8
0
  6
CONTINUOUS
 10
2.522080
 20
2.584560
  0
SEQEND
  8
0
  0
SOLID
  8
0
 62
    15
 10
2.464880
 20
2.485560
 11
3.113000
 21
2.101880
 12
2.433640
 22
2.401080
 13
3.081760
 23
2.017400
  0
POLYLINE
  8
0
  6
CONTINUOUS
 66
     1
 40
0.000000
 41
0.000000
  0
VERTEX
  8
0
  6
CONTINUOUS
 10
2.464880
 20
2.485560
  0
VERTEX
  8
0
  6
CONTINUOUS
 10
3.113000
 20
2.101880
  0
VERTEX
  8
0
  6
CONTINUOUS
 10
3.081760
 20
2.017400
  0
VERTEX
  8
0
  6
CONTINUOUS
 10
2.433640
 20
2.401080
  0
VERTEX
  8
0
  6
CONTINUOUS
 10
2.464880
 20
2.485560
  0
SEQEND
  8
0
  0
SOLID
  8
0
 62
    15
 10
2.433640
 20
2.401080
 11
3.081760
 21
2.017400
 12
2.419120
 22
2.352240
 13
3.067240
 23
1.968560
  0
POLYLINE
  8
0
  6
CONTINUOUS
 66
     1
 40
0.000000
 41
0.000000
  0
VERTEX
  8
0
  6
CONTINUOUS
 10
2.433640
 20
2.401080
  0
VERTEX
  8
0
  6
CONTINUOUS
 10
3.081760
 20
2.017400
  0
VERTEX
  8
0
  6
CONTINUOUS
 10
3.067240
 20
1.968560
  0
VERTEX
  8
0
  6
CONTINUOUS
 10
2.419120
 20
2.352240
  0
VERTEX
  8
0
  6
CONTINUOUS
 10
2.433640
 20
2.401080
  0
SEQEND
  8
0
  0
SOLID
  8
0
 62
    15
 10
2.419120
 20
2.352240
 11
3.067240
 21
1.968560
 12
2.404600
 22
2.299880
 13
3.052720
 23
1.916200
  0
POLYLINE
  8
0
  6
CONTINUOUS
 66
     1
 40
0.000000
 41
0.000000
  0
VERTEX
  8
0
  6
CONTINUOUS
 10
2.419120
 20
2.352240
  0
VERTEX
  8
0
  6
CONTINUOUS
 10
3.067240
 20
1.968560
  0
VERTEX
  8
0
  6
CONTINUOUS
 10
3.052720
 20
1.916200
  0
VERTEX
  8
0
  6
CONTINUOUS
 10
2.404600
 20
2.299880
  0
VERTEX
  8
0
  6
CONTINUOUS
 10
2.419120
 20
2.352240
  0
SEQEND
  8
0
  0
SOLID
  8
0
 62
    15
 10
2.404600
 20
2.299880
 11
3.052720
 21
1.916200
 12
2.369840
 22
2.190320
 13
3.017960
 23
1.806640
  0
POLYLINE
  8
0
  6
CONTINUOUS
 66
     1
 40
0.000000
 41
0.000000
  0
VERTEX
  8
0
  6
CONTINUOUS
 10
2.404600
 20
2.299880
  0
VERTEX
  8
0
  6
CONTINUOUS
 10
3.052720
 20
1.916200
  0
VERTEX
  8
0
  6
CONTINUOUS
 10
3.017960
 20
1.806640
  0
VERTEX
  8
0
  6
CONTINUOUS
 10
2.369840
 20
2.190320
  0
VERTEX
  8
0
  6
CONTINUOUS
 10
2.404600
 20
2.299880
  0
SEQEND
  8
0
  0
SOLID
  8
0
 62
    15
 10
2.369840
 20
2.190320
 11
3.017960
 21
1.806640
 12
2.322320
 22
2.080760
 13
2.970440
 23
1.697080
  0
POLYLINE
  8
0
  6
CONTINUOUS
 66
     1
 40
0.000000
 41
0.000000
  0
VERTEX
  8
0
  6
CONTINUOUS
 10
2.369840
 20
2.190320
  0
VERTEX
  8
0
  6
CONTINUOUS
 10
3.017960
 20
1.806640
  0
VERTEX
  8
0
  6
CONTINUOUS
 10
2.970440
 20
1.697080
  0
VERTEX
  8
0
  6
CONTINUOUS
 10
2.322320
 20
2.080760
  0
VERTEX
  8
0
  6
CONTINUOUS
 10
2.369840
 20
2.190320
  0
SEQEND
  8
0
  0
SOLID
  8
0
 62
    15
 10
2.322320
 20
2.080760
 11
2.970440
 21
1.697080
 12
2.255000
 22
1.980000
 13
2.902680
 23
1.596320
  0
POLYLINE
  8
0
  6
CONTINUOUS
 66
     1
 40
0.000000
 41
0.000000
  0
VERTEX
  8
0
  6
CONTINUOUS
 10
2.322320
 20
2.080760
  0
VERTEX
  8
0
  6
CONTINUOUS
 10
2.970440
 20
1.697080
  0
VERTEX
  8
0
  6
CONTINUOUS
 10
2.902680
 20
1.596320
  0
VERTEX
  8
0
  6
CONTINUOUS
 10
2.255000
 20
1.980000
  0
VERTEX
  8
0
  6
CONTINUOUS
 10
2.322320
 20
2.080760
  0
SEQEND
  8
0
  0
SOLID
  8
0
 62
    15
 10
2.255000
 20
1.980000
 11
2.902680
 21
1.596320
 12
2.159520
 22
1.896400
 13
2.807640
 23
1.512720
  0
POLYLINE
  8
0
  6
CONTINUOUS
 66
     1
 40
0.000000
 41
0.000000
  0
VERTEX
  8
0
  6
CONTINUOUS
 10
2.255000
 20
1.980000
  0
VERTEX
  8
0
  6
CONTINUOUS
 10
2.902680
 20
1.596320
  0
VERTEX
  8
0
  6
CONTINUOUS
 10
2.807640
 20
1.512720
  0
VERTEX
  8
0
  6
CONTINUOUS
 10
2.159520
 20
1.896400
  0
VERTEX
  8
0
  6
CONTINUOUS
 10
2.255000
 20
1.980000
  0
SEQEND
  8
0
  0
SOLID
  8
0
 62
    15
 10
2.159520
 20
1.896400
 11
2.807640
 21
1.512720
 12
2.099240
 22
1.864280
 13
2.746920
 23
1.480160
  0
POLYLINE
  8
0
  6
CONTINUOUS
 66
     1
 40
0.000000
 41
0.000000
  0
VERTEX
  8
0
  6
CONTINUOUS
 10
2.159520
 20
1.896400
  0
VERTEX
  8
0
  6
CONTINUOUS
 10
2.807640
 20
1.512720
  0
VERTEX
  8
0
  6
CONTINUOUS
 10
2.746920
 20
1.480160
  0
VERTEX
  8
0
  6
CONTINUOUS
 10
2.099240
 20
1.864280
  0
VERTEX
  8
0
  6
CONTINUOUS
 10
2.159520
 20
1.896400
  0
SEQEND
  8
0
  0
SOLID
  8
0
 62
    15
 10
2.099240
 20
1.864280
 11
2.746920
 21
1.480160
 12
2.029280
 22
1.839200
 13
2.676960
 23
1.455520
  0
POLYLINE
  8
0
  6
CONTINUOUS
 66
     1
 40
0.000000
 41
0.000000
  0
VERTEX
  8
0
  6
CONTINUOUS
 10
2.099240
 20
1.864280
  0
VERTEX
  8
0
  6
CONTINUOUS
 10
2.746920
 20
1.480160
  0
VERTEX
  8
0
  6
CONTINUOUS
 10
2.676960
 20
1.455520
  0
VERTEX
  8
0
  6
CONTINUOUS
 10
2.029280
 20
1.839200
  0
VERTEX
  8
0
  6
CONTINUOUS
 10
2.099240
 20
1.864280
  0
SEQEND
  8
0
  0
SOLID
  8
0
 62
    15
 10
2.029280
 20
1.839200
 11
2.676960
 21
1.455520
 12
1.948320
 22
1.822480
 13
2.596440
 23
1.438800
  0
POLYLINE
  8
0
  6
CONTINUOUS
 66
     1
 40
0.000000
 41
0.000000
  0
VERTEX
  8
0
  6
CONTINUOUS
 10
2.029280
 20
1.839200
  0
VERTEX
  8
0
  6
CONTINUOUS
 10
2.676960
 20
1.455520
  0
VERTEX
  8
0
  6
CONTINUOUS
 10
2.596440
 20
1.438800
  0
VERTEX
  8
0
  6
CONTINUOUS
 10
1.948320
 20
1.822480
  0
VERTEX
  8
0
  6
CONTINUOUS
 10
2.029280
 20
1.839200
  0
SEQEND
  8
0
  0
SOLID
  8
0
 62
    15
 10
1.948320
 20
1.822480
 11
2.596440
 21
1.438800
 12
1.856360
 22
1.815880
 13
2.504480
 23
1.432200
  0
POLYLINE
  8
0
  6
CONTINUOUS
 66
     1
 40
0.000000
 41
0.000000
  0
VERTEX
  8
0
  6
CONTINUOUS
 10
1.948320
 20
1.822480
  0
VERTEX
  8
0
  6
CONTINUOUS
 10
2.596440
 20
1.438800
  0
VERTEX
  8
0
  6
CONTINUOUS
 10
2.504480
 20
1.432200
  0
VERTEX
  8
0
  6
CONTINUOUS
 10
1.856360
 20
1.815880
  0
VERTEX
  8
0
  6
CONTINUOUS
 10
1.948320
 20
1.822480
  0
SEQEND
  8
0
  0
SOLID
  8
0
 62
    15
 10
1.856360
 20
1.815880
 11
2.504480
 21
1.432200
 12
1.855480
 22
1.815000
 13
2.503160
 23
1.431320
  0
POLYLINE
  8
0
  6
CONTINUOUS
 66
     1
 40
0.000000
 41
0.000000
  0
VERTEX
  8
0
  6
CONTINUOUS
 10
1.856360
 20
1.815880
  0
VERTEX
  8
0
  6
CONTINUOUS
 10
2.504480
 20
1.432200
  0
VERTEX
  8
0
  6
CONTINUOUS
 10
2.503160
 20
1.431320
  0
VERTEX
  8
0
  6
CONTINUOUS
 10
1.855480
 20
1.815000
  0
VERTEX
  8
0
  6
CONTINUOUS
 10
1.856360
 20
1.815880
  0
SEQEND
  8
0
  0
SOLID
  8
0
 62
    15
 10
3.242800
 20
2.889920
 11
3.890920
 21
2.505800
 12
3.124880
 22
2.911040
 13
3.772560
 23
2.527360
  0
POLYLINE
  8
0
  6
CONTINUOUS
 66
     1
 40
0.000000
 41
0.000000
  0
VERTEX
  8
0
  6
CONTINUOUS
 10
3.242800
 20
2.889920
  0
VERTEX
  8
0
  6
CONTINUOUS
 10
3.890920
 20
2.505800
  0
VERTEX
  8
0
  6
CONTINUOUS
 10
3.772560
 20
2.527360
  0
VERTEX
  8
0
  6
CONTINUOUS
 10
3.124880
 20
2.911040
  0
VERTEX
  8
0
  6
CONTINUOUS
 10
3.242800
 20
2.889920
  0
SEQEND
  8
0
  0
SOLID
  8
0
 62
    15
 10
1.847120
 20
1.588840
 11
2.495240
 21
1.205160
 12
1.844480
 22
1.587960
 13
2.492600
 23
1.204280
  0
POLYLINE
  8
0
  6
CONTINUOUS
 66
     1
 40
0.000000
 41
0.000000
  0
VERTEX
  8
0
  6
CONTINUOUS
 10
1.847120
 20
1.588840
  0
VERTEX
  8
0
  6
CONTINUOUS
 10
2.495240
 20
1.205160
  0
VERTEX
  8
0
  6
CONTINUOUS
 10
2.492600
 20
1.204280
  0
VERTEX
  8
0
  6
CONTINUOUS
 10
1.844480
 20
1.587960
  0
VERTEX
  8
0
  6
CONTINUOUS
 10
1.847120
 20
1.588840
  0
SEQEND
  8
0
  0
SOLID
  8
0
 62
    15
 10
1.844480
 20
1.587960
 11
2.492600
 21
1.204280
 12
1.665400
 22
1.615680
 13
2.313520
 23
1.232000
  0
POLYLINE
  8
0
  6
CONTINUOUS
 66
     1
 40
0.000000
 41
0.000000
  0
VERTEX
  8
0
  6
CONTINUOUS
 10
1.844480
 20
1.587960
  0
VERTEX
  8
0
  6
CONTINUOUS
 10
2.492600
 20
1.204280
  0
VERTEX
  8
0
  6
CONTINUOUS
 10
2.313520
 20
1.232000
  0
VERTEX
  8
0
  6
CONTINUOUS
 10
1.665400
 20
1.615680
  0
VERTEX
  8
0
  6
CONTINUOUS
 10
1.844480
 20
1.587960
  0
SEQEND
  8
0
  0
SOLID
  8
0
 62
    15
 10
1.665400
 20
1.615680
 11
2.313520
 21
1.232000
 12
1.664080
 22
1.610840
 13
2.312200
 23
1.227160
  0
POLYLINE
  8
0
  6
CONTINUOUS
 66
     1
 40
0.000000
 41
0.000000
  0
VERTEX
  8
0
  6
CONTINUOUS
 10
1.665400
 20
1.615680
  0
VERTEX
  8
0
  6
CONTINUOUS
 10
2.313520
 20
1.232000
  0
VERTEX
  8
0
  6
CONTINUOUS
 10
2.312200
 20
1.227160
  0
VERTEX
  8
0
  6
CONTINUOUS
 10
1.664080
 20
1.610840
  0
VERTEX
  8
0
  6
CONTINUOUS
 10
1.665400
 20
1.615680
  0
SEQEND
  8
0
  0
SOLID
  8
0
 62
    15
 10
1.664080
 20
1.610840
 11
2.312200
 21
1.227160
 12
1.668040
 22
1.538240
 13
2.316160
 23
1.154560
  0
POLYLINE
  8
0
  6
CONTINUOUS
 66
     1
 40
0.000000
 41
0.000000
  0
VERTEX
  8
0
  6
CONTINUOUS
 10
1.664080
 20
1.610840
  0
VERTEX
  8
0
  6
CONTINUOUS
 10
2.312200
 20
1.227160
  0
VERTEX
  8
0
  6
CONTINUOUS
 10
2.316160
 20
1.154560
  0
VERTEX
  8
0
  6
CONTINUOUS
 10
1.668040
 20
1.538240
  0
VERTEX
  8
0
  6
CONTINUOUS
 10
1.664080
 20
1.610840
  0
SEQEND
  8
0
  0
SOLID
  8
0
 62
    15
 10
1.668040
 20
1.538240
 11
2.316160
 21
1.154560
 12
1.659680
 22
1.481040
 13
2.307360
 23
1.097360
  0
POLYLINE
  8
0
  6
CONTINUOUS
 66
     1
 40
0.000000
 41
0.000000
  0
VERTEX
  8
0
  6
CONTINUOUS
 10
1.668040
 20
1.538240
  0
VERTEX
  8
0
  6
CONTINUOUS
 10
2.316160
 20
1.154560
  0
VERTEX
  8
0
  6
CONTINUOUS
 10
2.307360
 20
1.097360
  0
VERTEX
  8
0
  6
CONTINUOUS
 10
1.659680
 20
1.481040
  0
VERTEX
  8
0
  6
CONTINUOUS
 10
1.668040
 20
1.538240
  0
SEQEND
  8
0
  0
SOLID
  8
0
 62
    15
 10
1.659680
 20
1.481040
 11
2.307360
 21
1.097360
 12
1.640320
 22
1.436600
 13
2.288440
 23
1.052920
  0
POLYLINE
  8
0
  6
CONTINUOUS
 66
     1
 40
0.000000
 41
0.000000
  0
VERTEX
  8
0
  6
CONTINUOUS
 10
1.659680
 20
1.481040
  0
VERTEX
  8
0
  6
CONTINUOUS
 10
2.307360
 20
1.097360
  0
VERTEX
  8
0
  6
CONTINUOUS
 10
2.288440
 20
1.052920
  0
VERTEX
  8
0
  6
CONTINUOUS
 10
1.640320
 20
1.436600
  0
VERTEX
  8
0
  6
CONTINUOUS
 10
1.659680
 20
1.481040
  0
SEQEND
  8
0
  0
SOLID
  8
0
 62
    15
 10
1.640320
 20
1.436600
 11
2.288440
 21
1.052920
 12
1.612600
 22
1.403160
 13
2.260280
 23
1.019480
  0
POLYLINE
  8
0
  6
CONTINUOUS
 66
     1
 40
0.000000
 41
0.000000
  0
VERTEX
  8
0
  6
CONTINUOUS
 10
1.640320
 20
1.436600
  0
VERTEX
  8
0
  6
CONTINUOUS
 10
2.288440
 20
1.052920
  0
VERTEX
  8
0
  6
CONTINUOUS
 10
2.260280
 20
1.019480
  0
VERTEX
  8
0
  6
CONTINUOUS
 10
1.612600
 20
1.403160
  0
VERTEX
  8
0
  6
CONTINUOUS
 10
1.640320
 20
1.436600
  0
SEQEND
  8
0
  0
SOLID
  8
0
 62
    15
 10
1.612600
 20
1.403160
 11
2.260280
 21
1.019480
 12
1.536920
 22
1.357400
 13
2.184600
 23
0.973720
  0
POLYLINE
  8
0
  6
CONTINUOUS
 66
     1
 40
0.000000
 41
0.000000
  0
VERTEX
  8
0
  6
CONTINUOUS
 10
1.612600
 20
1.403160
  0
VERTEX
  8
0
  6
CONTINUOUS
 10
2.260280
 20
1.019480
  0
VERTEX
  8
0
  6
CONTINUOUS
 10
2.184600
 20
0.973720
  0
VERTEX
  8
0
  6
CONTINUOUS
 10
1.536920
 20
1.357400
  0
VERTEX
  8
0
  6
CONTINUOUS
 10
1.612600
 20
1.403160
  0
SEQEND
  8
0
  0
SOLID
  8
0
 62
    15
 10
1.536920
 20
1.357400
 11
2.184600
 21
0.973720
 12
1.492480
 22
1.341120
 13
2.140600
 23
0.957440
  0
POLYLINE
  8
0
  6
CONTINUOUS
 66
     1
 40
0.000000
 41
0.000000
  0
VERTEX
  8
0
  6
CONTINUOUS
 10
1.536920
 20
1.357400
  0
VERTEX
  8
0
  6
CONTINUOUS
 10
2.184600
 20
0.973720
  0
VERTEX
  8
0
  6
CONTINUOUS
 10
2.140600
 20
0.957440
  0
VERTEX
  8
0
  6
CONTINUOUS
 10
1.492480
 20
1.341120
  0
VERTEX
  8
0
  6
CONTINUOUS
 10
1.536920
 20
1.357400
  0
SEQEND
  8
0
  0
SOLID
  8
0
 62
    15
 10
1.492480
 20
1.341120
 11
2.140600
 21
0.957440
 12
1.446280
 22
1.325280
 13
2.094400
 23
0.941600
  0
POLYLINE
  8
0
  6
CONTINUOUS
 66
     1
 40
0.000000
 41
0.000000
  0
VERTEX
  8
0
  6
CONTINUOUS
 10
1.492480
 20
1.341120
  0
VERTEX
  8
0
  6
CONTINUOUS
 10
2.140600
 20
0.957440
  0
VERTEX
  8
0
  6
CONTINUOUS
 10
2.094400
 20
0.941600
  0
VERTEX
  8
0
  6
CONTINUOUS
 10
1.446280
 20
1.325280
  0
VERTEX
  8
0
  6
CONTINUOUS
 10
1.492480
 20
1.341120
  0
SEQEND
  8
0
  0
SOLID
  8
0
 62
    15
 10
1.446280
 20
1.325280
 11
2.094400
 21
0.941600
 12
1.354760
 22
1.287440
 13
2.002880
 23
0.903760
  0
POLYLINE
  8
0
  6
CONTINUOUS
 66
     1
 40
0.000000
 41
0.000000
  0
VERTEX
  8
0
  6
CONTINUOUS
 10
1.446280
 20
1.325280
  0
VERTEX
  8
0
  6
CONTINUOUS
 10
2.094400
 20
0.941600
  0
VERTEX
  8
0
  6
CONTINUOUS
 10
2.002880
 20
0.903760
  0
VERTEX
  8
0
  6
CONTINUOUS
 10
1.354760
 20
1.287440
  0
VERTEX
  8
0
  6
CONTINUOUS
 10
1.446280
 20
1.325280
  0
SEQEND
  8
0
  0
SOLID
  8
0
 62
    15
 10
1.354760
 20
1.287440
 11
2.002880
 21
0.903760
 12
1.276440
 22
1.224080
 13
1.924560
 23
0.840400
  0
POLYLINE
  8
0
  6
CONTINUOUS
 66
     1
 40
0.000000
 41
0.000000
  0
VERTEX
  8
0
  6
CONTINUOUS
 10
1.354760
 20
1.287440
  0
VERTEX
  8
0
  6
CONTINUOUS
 10
2.002880
 20
0.903760
  0
VERTEX
  8
0
  6
CONTINUOUS
 10
1.924560
 20
0.840400
  0
VERTEX
  8
0
  6
CONTINUOUS
 10
1.276440
 20
1.224080
  0
VERTEX
  8
0
  6
CONTINUOUS
 10
1.354760
 20
1.287440
  0
SEQEND
  8
0
  0
SOLID
  8
0
 62
    15
 10
1.276440
 20
1.224080
 11
1.924560
 21
0.840400
 12
1.246520
 22
1.177440
 13
1.894640
 23
0.793320
  0
POLYLINE
  8
0
  6
CONTINUOUS
 66
     1
 40
0.000000
 41
0.000000
  0
VERTEX
  8
0
  6
CONTINUOUS
 10
1.276440
 20
1.224080
  0
VERTEX
  8
0
  6
CONTINUOUS
 10
1.924560
 20
0.840400
  0
VERTEX
  8
0
  6
CONTINUOUS
 10
1.894640
 20
0.793320
  0
VERTEX
  8
0
  6
CONTINUOUS
 10
1.246520
 20
1.177440
  0
VERTEX
  8
0
  6
CONTINUOUS
 10
1.276440
 20
1.224080
  0
SEQEND
  8
0
  0
SOLID
  8
0
 62
    15
 10
1.246520
 20
1.177440
 11
1.894640
 21
0.793320
 12
1.224960
 22
1.116720
 13
1.873080
 23
0.733040
  0
POLYLINE
  8
0
  6
CONTINUOUS
 66
     1
 40
0.000000
 41
0.000000
  0
VERTEX
  8
0
  6
CONTINUOUS
 10
1.246520
 20
1.177440
  0
VERTEX
  8
0
  6
CONTINUOUS
 10
1.894640
 20
0.793320
  0
VERTEX
  8
0
  6
CONTINUOUS
 10
1.873080
 20
0.733040
  0
VERTEX
  8
0
  6
CONTINUOUS
 10
1.224960
 20
1.116720
  0
VERTEX
  8
0
  6
CONTINUOUS
 10
1.246520
 20
1.177440
  0
SEQEND
  8
0
  0
SOLID
  8
0
 62
    15
 10
1.224960
 20
1.116720
 11
1.873080
 21
0.733040
 12
1.213520
 22
1.040160
 13
1.861640
 23
0.656480
  0
POLYLINE
  8
0
  6
CONTINUOUS
 66
     1
 40
0.000000
 41
0.000000
  0
VERTEX
  8
0
  6
CONTINUOUS
 10
1.224960
 20
1.116720
  0
VERTEX
  8
0
  6
CONTINUOUS
 10
1.873080
 20
0.733040
  0
VERTEX
  8
0
  6
CONTINUOUS
 10
1.861640
 20
0.656480
  0
VERTEX
  8
0
  6
CONTINUOUS
 10
1.213520
 20
1.040160
  0
VERTEX
  8
0
  6
CONTINUOUS
 10
1.224960
 20
1.116720
  0
SEQEND
  8
0
  0
SOLID
  8
0
 62
    15
 10
1.213520
 20
1.040160
 11
1.861640
 21
0.656480
 12
1.214400
 22
0.945560
 13
1.862080
 23
0.561880
  0
POLYLINE
  8
0
  6
CONTINUOUS
 66
     1
 40
0.000000
 41
0.000000
  0
VERTEX
  8
0
  6
CONTINUOUS
 10
1.213520
 20
1.040160
  0
VERTEX
  8
0
  6
CONTINUOUS
 10
1.861640
 20
0.656480
  0
VERTEX
  8
0
  6
CONTINUOUS
 10
1.862080
 20
0.561880
  0
VERTEX
  8
0
  6
CONTINUOUS
 10
1.214400
 20
0.945560
  0
VERTEX
  8
0
  6
CONTINUOUS
 10
1.213520
 20
1.040160
  0
SEQEND
  8
0
  0
SOLID
  8
0
 62
    15
 10
1.216160
 20
0.945560
 11
1.864280
 21
0.561880
 12
0.888800
 22
0.954800
 13
1.536480
 23
0.571120
  0
POLYLINE
  8
0
  6
CONTINUOUS
 66
     1
 40
0.000000
 41
0.000000
  0
VERTEX
  8
0
  6
CONTINUOUS
 10
1.216160
 20
0.945560
  0
VERTEX
  8
0
  6
CONTINUOUS
 10
1.864280
 20
0.561880
  0
VERTEX
  8
0
  6
CONTINUOUS
 10
1.536480
 20
0.571120
  0
VERTEX
  8
0
  6
CONTINUOUS
 10
0.888800
 20
0.954800
  0
VERTEX
  8
0
  6
CONTINUOUS
 10
1.216160
 20
0.945560
  0
SEQEND
  8
0
  0
SOLID
  8
0
 62
    15
 10
1.214400
 20
0.945560
 11
1.862080
 21
0.561880
 12
1.213080
 22
0.944680
 13
1.861200
 23
0.561000
  0
POLYLINE
  8
0
  6
CONTINUOUS
 66
     1
 40
0.000000
 41
0.000000
  0
VERTEX
  8
0
  6
CONTINUOUS
 10
1.214400
 20
0.945560
  0
VERTEX
  8
0
  6
CONTINUOUS
 10
1.862080
 20
0.561880
  0
VERTEX
  8
0
  6
CONTINUOUS
 10
1.861200
 20
0.561000
  0
VERTEX
  8
0
  6
CONTINUOUS
 10
1.213080
 20
0.944680
  0
VERTEX
  8
0
  6
CONTINUOUS
 10
1.214400
 20
0.945560
  0
SEQEND
  8
0
  0
POLYLINE
  8
0
  6
CONTINUOUS
 66
     1
 40
0.000000
 41
0.000000
  0
VERTEX
  8
0
  6
CONTINUOUS
 10
1.862080
 20
0.561880
  0
VERTEX
  8
0
  6
CONTINUOUS
 10
1.214400
 20
0.945560
  0
VERTEX
  8
0
  6
CONTINUOUS
 10
1.862080
 20
0.561880
  0
SEQEND
  8
0
  0
SOLID
  8
0
 62
    15
 10
3.259960
 20
3.282400
 11
3.908080
 21
2.898720
 12
3.243680
 22
2.906640
 13
3.891800
 23
2.522520
  0
POLYLINE
  8
0
  6
CONTINUOUS
 66
     1
 40
0.000000
 41
0.000000
  0
VERTEX
  8
0
  6
CONTINUOUS
 10
3.259960
 20
3.282400
  0
VERTEX
  8
0
  6
CONTINUOUS
 10
3.908080
 20
2.898720
  0
VERTEX
  8
0
  6
CONTINUOUS
 10
3.891800
 20
2.522520
  0
VERTEX
  8
0
  6
CONTINUOUS
 10
3.243680
 20
2.906640
  0
VERTEX
  8
0
  6
CONTINUOUS
 10
3.259960
 20
3.282400
  0
SEQEND
  8
0
  0
SOLID
  8
0
 62
    15
 10
3.243680
 20
2.906640
 11
3.891800
 21
2.522520
 12
3.242800
 22
2.889920
 13
3.890920
 23
2.505800
  0
POLYLINE
  8
0
  6
CONTINUOUS
 66
     1
 40
0.000000
 41
0.000000
  0
VERTEX
  8
0
  6
CONTINUOUS
 10
3.243680
 20
2.906640
  0
VERTEX
  8
0
  6
CONTINUOUS
 10
3.891800
 20
2.522520
  0
VERTEX
  8
0
  6
CONTINUOUS
 10
3.890920
 20
2.505800
  0
VERTEX
  8
0
  6
CONTINUOUS
 10
3.242800
 20
2.889920
  0
VERTEX
  8
0
  6
CONTINUOUS
 10
3.243680
 20
2.906640
  0
SEQEND
  8
0
  0
POLYLINE
  8
0
  6
CONTINUOUS
 66
     1
 40
0.000000
 41
0.000000
  0
VERTEX
  8
0
  6
CONTINUOUS
 10
3.242800
 20
2.889920
  0
VERTEX
  8
0
  6
CONTINUOUS
 10
3.124880
 20
2.911040
  0
VERTEX
  8
0
  6
CONTINUOUS
 10
3.006960
 20
2.905320
  0
VERTEX
  8
0
  6
CONTINUOUS
 10
2.892560
 20
2.875400
  0
VERTEX
  8
0
  6
CONTINUOUS
 10
2.784320
 20
2.825240
  0
VERTEX
  8
0
  6
CONTINUOUS
 10
2.684440
 20
2.757480
  0
VERTEX
  8
0
  6
CONTINUOUS
 10
2.596000
 20
2.676520
  0
VERTEX
  8
0
  6
CONTINUOUS
 10
2.522080
 20
2.584560
  0
VERTEX
  8
0
  6
CONTINUOUS
 10
2.464880
 20
2.485560
  0
VERTEX
  8
0
  6
CONTINUOUS
 10
2.433640
 20
2.401080
  0
VERTEX
  8
0
  6
CONTINUOUS
 10
2.419120
 20
2.352240
  0
VERTEX
  8
0
  6
CONTINUOUS
 10
2.404600
 20
2.299880
  0
VERTEX
  8
0
  6
CONTINUOUS
 10
2.369840
 20
2.190320
  0
VERTEX
  8
0
  6
CONTINUOUS
 10
2.322320
 20
2.080760
  0
VERTEX
  8
0
  6
CONTINUOUS
 10
2.255000
 20
1.980000
  0
VERTEX
  8
0
  6
CONTINUOUS
 10
2.159520
 20
1.896400
  0
VERTEX
  8
0
  6
CONTINUOUS
 10
2.099240
 20
1.864280
  0
VERTEX
  8
0
  6
CONTINUOUS
 10
2.029280
 20
1.839200
  0
VERTEX
  8
0
  6
CONTINUOUS
 10
1.948320
 20
1.822480
  0
VERTEX
  8
0
  6
CONTINUOUS
 10
1.856360
 20
1.815880
  0
VERTEX
  8
0
  6
CONTINUOUS
 10
1.855480
 20
1.815000
  0
VERTEX
  8
0
  6
CONTINUOUS
 10
1.847120
 20
1.588840
  0
VERTEX
  8
0
  6
CONTINUOUS
 10
1.844480
 20
1.587960
  0
VERTEX
  8
0
  6
CONTINUOUS
 10
1.665400
 20
1.615680
  0
VERTEX
  8
0
  6
CONTINUOUS
 10
1.664080
 20
1.610840
  0
VERTEX
  8
0
  6
CONTINUOUS
 10
1.668040
 20
1.538240
  0
VERTEX
  8
0
  6
CONTINUOUS
 10
1.659680
 20
1.481040
  0
VERTEX
  8
0
  6
CONTINUOUS
 10
1.640320
 20
1.436600
  0
VERTEX
  8
0
  6
CONTINUOUS
 10
1.612600
 20
1.403160
  0
VERTEX
  8
0
  6
CONTINUOUS
 10
1.536920
 20
1.357400
  0
VERTEX
  8
0
  6
CONTINUOUS
 10
1.492480
 20
1.341120
  0
VERTEX
  8
0
  6
CONTINUOUS
 10
1.446280
 20
1.325280
  0
VERTEX
  8
0
  6
CONTINUOUS
 10
1.354760
 20
1.287440
  0
VERTEX
  8
0
  6
CONTINUOUS
 10
1.276440
 20
1.224080
  0
VERTEX
  8
0
  6
CONTINUOUS
 10
1.246520
 20
1.177440
  0
VERTEX
  8
0
  6
CONTINUOUS
 10
1.224960
 20
1.116720
  0
VERTEX
  8
0
  6
CONTINUOUS
 10
1.213520
 20
1.040160
  0
VERTEX
  8
0
  6
CONTINUOUS
 10
1.214400
 20
0.945560
  0
VERTEX
  8
0
  6
CONTINUOUS
 10
1.213080
 20
0.944680
  0
VERTEX
  8
0
  6
CONTINUOUS
 10
1.216160
 20
0.945560
  0
VERTEX
  8
0
  6
CONTINUOUS
 10
0.888800
 20
0.954800
  0
VERTEX
  8
0
  6
CONTINUOUS
 10
0.904200
 20
1.771440
  0
VERTEX
  8
0
  6
CONTINUOUS
 10
0.909480
 20
1.776280
  0
VERTEX
  8
0
  6
CONTINUOUS
 10
2.511960
 20
3.244560
  0
VERTEX
  8
0
  6
CONTINUOUS
 10
3.259960
 20
3.282400
  0
VERTEX
  8
0
  6
CONTINUOUS
 10
3.243680
 20
2.906640
  0
VERTEX
  8
0
  6
CONTINUOUS
 10
3.242800
 20
2.889920
  0
SEQEND
  8
0
  0
POLYLINE
  8
0
  6
CONTINUOUS
 66
     1
 40
0.014080
 41
0.014080
  0
VERTEX
  8
0
  6
CONTINUOUS
 10
4.836920
 20
3.137640
  0
VERTEX
  8
0
  6
CONTINUOUS
 10
4.571160
 20
2.871440
  0
VERTEX
  8
0
  6
CONTINUOUS
 10
5.148440
 20
2.394040
  0
VERTEX
  8
0
  6
CONTINUOUS
 10
7.329080
 20
2.394040
  0
VERTEX
  8
0
  6
CONTINUOUS
 10
7.891840
 20
2.985400
  0
VERTEX
  8
0
  6
CONTINUOUS
 10
7.658200
 20
3.212440
  0
VERTEX
  8
0
  6
CONTINUOUS
 10
7.610240
 20
3.157440
  0
VERTEX
  8
0
  6
CONTINUOUS
 10
7.579440
 20
3.127960
  0
VERTEX
  8
0
  6
CONTINUOUS
 10
7.534560
 20
3.093640
  0
VERTEX
  8
0
  6
CONTINUOUS
 10
7.491880
 20
3.069440
  0
VERTEX
  8
0
  6
CONTINUOUS
 10
7.464160
 20
3.058440
  0
VERTEX
  8
0
  6
CONTINUOUS
 10
7.437320
 20
3.051400
  0
VERTEX
  8
0
  6
CONTINUOUS
 10
7.398160
 20
3.046560
  0
VERTEX
  8
0
  6
CONTINUOUS
 10
7.372640
 20
3.047440
  0
VERTEX
  8
0
  6
CONTINUOUS
 10
7.348000
 20
3.050520
  0
VERTEX
  8
0
  6
CONTINUOUS
 10
7.323360
 20
3.055360
  0
VERTEX
  8
0
  6
CONTINUOUS
 10
7.276280
 20
3.070320
  0
VERTEX
  8
0
  6
CONTINUOUS
 10
7.142080
 20
3.126640
  0
VERTEX
  8
0
  6
CONTINUOUS
 10
7.098960
 20
3.139400
  0
VERTEX
  8
0
  6
CONTINUOUS
 10
7.076960
 20
3.142920
  0
VERTEX
  8
0
  6
CONTINUOUS
 10
7.055400
 20
3.144240
  0
VERTEX
  8
0
  6
CONTINUOUS
 10
7.022840
 20
3.141160
  0
VERTEX
  8
0
  6
CONTINUOUS
 10
6.990280
 20
3.130160
  0
VERTEX
  8
0
  6
CONTINUOUS
 10
6.967840
 20
3.118720
  0
VERTEX
  8
0
  6
CONTINUOUS
 10
6.934400
 20
3.092760
  0
VERTEX
  8
0
  6
CONTINUOUS
 10
6.911520
 20
3.069880
  0
VERTEX
  8
0
  6
CONTINUOUS
 10
6.876760
 20
3.025880
  0
VERTEX
  8
0
  6
CONTINUOUS
 10
6.872800
 20
3.023240
  0
VERTEX
  8
0
  6
CONTINUOUS
 10
6.759720
 20
3.164480
  0
VERTEX
  8
0
  6
CONTINUOUS
 10
6.757080
 20
3.165800
  0
VERTEX
  8
0
  6
CONTINUOUS
 10
6.598240
 20
3.004320
  0
VERTEX
  8
0
  6
CONTINUOUS
 10
6.596920
 20
3.004320
  0
VERTEX
  8
0
  6
CONTINUOUS
 10
6.542360
 20
3.048760
  0
VERTEX
  8
0
  6
CONTINUOUS
 10
6.488680
 20
3.084400
  0
VERTEX
  8
0
  6
CONTINUOUS
 10
6.453920
 20
3.104200
  0
VERTEX
  8
0
  6
CONTINUOUS
 10
6.402440
 20
3.127080
  0
VERTEX
  8
0
  6
CONTINUOUS
 10
6.351840
 20
3.142920
  0
VERTEX
  8
0
  6
CONTINUOUS
 10
6.302560
 20
3.152160
  0
VERTEX
  8
0
  6
CONTINUOUS
 10
6.254600
 20
3.155680
  0
VERTEX
  8
0
  6
CONTINUOUS
 10
6.222920
 20
3.155240
  0
VERTEX
  8
0
  6
CONTINUOUS
 10
6.192120
 20
3.152600
  0
VERTEX
  8
0
  6
CONTINUOUS
 10
6.132280
 20
3.141600
  0
VERTEX
  8
0
  6
CONTINUOUS
 10
6.102800
 20
3.133680
  0
VERTEX
  8
0
  6
CONTINUOUS
 10
6.046040
 20
3.113440
  0
VERTEX
  8
0
  6
CONTINUOUS
 10
5.991920
 20
3.088800
  0
VERTEX
  8
0
  6
CONTINUOUS
 10
5.914480
 20
3.047000
  0
VERTEX
  8
0
  6
CONTINUOUS
 10
5.754760
 20
2.950640
  0
VERTEX
  8
0
  6
CONTINUOUS
 10
5.714720
 20
2.929960
  0
VERTEX
  8
0
  6
CONTINUOUS
 10
5.669400
 20
2.911480
  0
VERTEX
  8
0
  6
CONTINUOUS
 10
5.614840
 20
2.894320
  0
VERTEX
  8
0
  6
CONTINUOUS
 10
5.558080
 20
2.881120
  0
VERTEX
  8
0
  6
CONTINUOUS
 10
5.500000
 20
2.872320
  0
VERTEX
  8
0
  6
CONTINUOUS
 10
5.440160
 20
2.867920
  0
VERTEX
  8
0
  6
CONTINUOUS
 10
5.380320
 20
2.867920
  0
VERTEX
  8
0
  6
CONTINUOUS
 10
5.349960
 20
2.869240
  0
VERTEX
  8
0
  6
CONTINUOUS
 10
5.290120
 20
2.875840
  0
VERTEX
  8
0
  6
CONTINUOUS
 10
5.231160
 20
2.886840
  0
VERTEX
  8
0
  6
CONTINUOUS
 10
5.173080
 20
2.902680
  0
VERTEX
  8
0
  6
CONTINUOUS
 10
5.116760
 20
2.923360
  0
VERTEX
  8
0
  6
CONTINUOUS
 10
5.063080
 20
2.948440
  0
VERTEX
  8
0
  6
CONTINUOUS
 10
5.012480
 20
2.978800
  0
VERTEX
  8
0
  6
CONTINUOUS
 10
4.964960
 20
3.013560
  0
VERTEX
  8
0
  6
CONTINUOUS
 10
4.921840
 20
3.054040
  0
VERTEX
  8
0
  6
CONTINUOUS
 10
4.901600
 20
3.076040
  0
VERTEX
  8
0
  6
CONTINUOUS
 10
4.865520
 20
3.123560
  0
VERTEX
  8
0
  6
CONTINUOUS
 10
4.849240
 20
3.149520
  0
VERTEX
  8
0
  6
CONTINUOUS
 10
4.836920
 20
3.137640
  0
SEQEND
  8
0
  0
ENDSEC
  0
EOF
