  0
SECTION
  2
HEADER
  9
$ACADVER
  1
AC1006
  9
$EXTMIN
 10
2.389200
 20
0.342320
  9
$EXTMAX
 10
8.030880
 20
2.534400
  9
$LTSCALE
 40
0.044000
  9
$PDMODE
 70
    35
  9
$PDSIZE
 40
0.035200
  0
ENDSEC
  0
SECTION
  2
TABLES
  0
TABLE
  2
LTYPE
 70
     9
  0
LTYPE
  2
CONTINUOUS
 70
    64
  3
Solid line
 72
    65
 73
     0
 40
0.000000
  0
LTYPE
  2
DASHED
 70
    64
  3
__ __ __ __ __ __ __ __ __ __ __ __ __ __ __
 72
    65
 73
     2
 40
0.000330
 49
0.000220
 49
-0.000110
  0
LTYPE
  2
HIDDEN
 70
    64
  3
 _ _ _ _ _ _ _ _ _ _ _ _ _ _ _ _ _ _ _ _ _ _
 72
    65
 73
     2
 40
0.000165
 49
0.000110
 49
-0.000055
  0
LTYPE
  2
CENTER
 70
    64
  3
____ _ ____ _ ____ _ ____ _ ____ _ ____ _ ____
 72
    65
 73
     4
 40
0.000880
 49
0.000550
 49
-0.000110
 49
0.000110
 49
-0.000110
  0
LTYPE
  2
PHANTOM
 70
    64
  3
_____ _ _ _____ _ _ _____ _ _ _____ _ _ ____
 72
    65
 73
     6
 40
0.001100
 49
0.000550
 49
-0.000110
 49
0.000110
 49
-0.000110
 49
0.000110
 49
-0.000110
  0
LTYPE
  2
DOT
 70
    64
  3
...............................................
 72
    65
 73
     2
 40
0.000110
 49
0.000000
 49
-0.000110
  0
LTYPE
  2
DASHDOT
 70
    64
  3
__ . __ . __ . __ . __ . __ . __ . __ . __ . __
 72
    65
 73
     4
 40
0.000440
 49
0.000220
 49
-0.000110
 49
0.000000
 49
-0.000110
  0
LTYPE
  2
BORDER
 70
    64
  3
__ __ . __ __ . __ __ . __ __ . __ __ . __ __
 72
    65
 73
     6
 40
0.000770
 49
0.000220
 49
-0.000110
 49
0.000220
 49
-0.000110
 49
0.000000
 49
-0.000110
  0
LTYPE
  2
DIVIDE
 70
    64
  3
__ . . __ . . __ . . __ . . __ . . __ . . __
 72
    65
 73
     6
 40
0.000550
 49
0.000220
 49
-0.000110
 49
0.000000
 49
-0.000110
 49
0.000000
 49
-0.000110
  0
LTYPE
  2
DOTDOT
 70
    64
  3
 . .  . .  . .  . .  . .  . . 
 72
    65
 73
     5
 40
0.000242
 49
-0.000110
 49
0.000000
 49
-0.000110
 49
0.000000
 49
-0.000110
  0
ENDTAB
  0
TABLE
  2
STYLE
 70
     2
  0
STYLE
 70
     0
  2
SN0
 40
0.000000
 41
0.000440
 50
0.000000
 71
     0
 42
0.000000
  3
ROMAND
  0
STYLE
 70
    68
  2
SV0
 40
0.000000
 41
0.000440
 50
0.000000
 71
     0
 42
0.000000
  3
ROMAND
  0
ENDTAB
  0
TABLE
  2
LAYER
 70
     3
  0
LAYER
  2
FOREGROUND
 70
    64
 62
     7
  6
CONTINUOUS
  0
LAYER
  2
BACKGROUND
 70
    65
 62
    -7
  6
CONTINUOUS
  0
LAYER
  2
0
 70
    64
 62
     7
  6
CONTINUOUS
  0
ENDTAB
  0
ENDSEC
  0
SECTION
  2
ENTITIES
  0
POLYLINE
  8
FOREGROUND
  6
CONTINUOUS
 66
     1
 40
0.000000
 41
0.000000
  0
VERTEX
  8
FOREGROUND
  6
CONTINUOUS
 10
0.000000
 20
2.876720
  0
VERTEX
  8
FOREGROUND
  6
CONTINUOUS
 10
8.499920
 20
2.876720
  0
VERTEX
  8
FOREGROUND
  6
CONTINUOUS
 10
8.499920
 20
-8.123280
  0
VERTEX
  8
FOREGROUND
  6
CONTINUOUS
 10
0.000000
 20
-8.123280
  0
VERTEX
  8
FOREGROUND
  6
CONTINUOUS
 10
0.000000
 20
2.876720
  0
SEQEND
  8
0
  0
POLYLINE
  8
FOREGROUND
  6
CONTINUOUS
 66
     1
 40
0.000000
 41
0.000000
  0
VERTEX
  8
FOREGROUND
  6
CONTINUOUS
 10
0.000000
 20
2.876720
  0
VERTEX
  8
FOREGROUND
  6
CONTINUOUS
 10
8.499920
 20
2.876720
  0
VERTEX
  8
FOREGROUND
  6
CONTINUOUS
 10
8.499920
 20
-8.123280
  0
VERTEX
  8
FOREGROUND
  6
CONTINUOUS
 10
0.000000
 20
-8.123280
  0
VERTEX
  8
FOREGROUND
  6
CONTINUOUS
 10
0.000000
 20
2.876720
  0
SEQEND
  8
0
  0
POLYLINE
  8
0
  6
CONTINUOUS
 66
     1
 40
0.014080
 41
0.014080
  0
VERTEX
  8
0
  6
CONTINUOUS
 10
6.594720
 20
1.580040
  0
VERTEX
  8
0
  6
CONTINUOUS
 10
7.253400
 20
2.177560
  0
VERTEX
  8
0
  6
CONTINUOUS
 10
7.081360
 20
2.334640
  0
VERTEX
  8
0
  6
CONTINUOUS
 10
6.982800
 20
2.241360
  0
VERTEX
  8
0
  6
CONTINUOUS
 10
6.905360
 20
2.318800
  0
VERTEX
  8
0
  6
CONTINUOUS
 10
6.860480
 20
2.284920
  0
VERTEX
  8
0
  6
CONTINUOUS
 10
6.816480
 20
2.256320
  0
VERTEX
  8
0
  6
CONTINUOUS
 10
6.773360
 20
2.233000
  0
VERTEX
  8
0
  6
CONTINUOUS
 10
6.730680
 20
2.214520
  0
VERTEX
  8
0
  6
CONTINUOUS
 10
6.688880
 20
2.200880
  0
VERTEX
  8
0
  6
CONTINUOUS
 10
6.647520
 20
2.190760
  0
VERTEX
  8
0
  6
CONTINUOUS
 10
6.606600
 20
2.184600
  0
VERTEX
  8
0
  6
CONTINUOUS
 10
6.566120
 20
2.181960
  0
VERTEX
  8
0
  6
CONTINUOUS
 10
6.526080
 20
2.181960
  0
VERTEX
  8
0
  6
CONTINUOUS
 10
6.486480
 20
2.185040
  0
VERTEX
  8
0
  6
CONTINUOUS
 10
6.447320
 20
2.190320
  0
VERTEX
  8
0
  6
CONTINUOUS
 10
6.407720
 20
2.197360
  0
VERTEX
  8
0
  6
CONTINUOUS
 10
6.329840
 20
2.216280
  0
VERTEX
  8
0
  6
CONTINUOUS
 10
6.134040
 20
2.272160
  0
VERTEX
  8
0
  6
CONTINUOUS
 10
6.094440
 20
2.282280
  0
VERTEX
  8
0
  6
CONTINUOUS
 10
6.013920
 20
2.297680
  0
VERTEX
  8
0
  6
CONTINUOUS
 10
5.952320
 20
2.304280
  0
VERTEX
  8
0
  6
CONTINUOUS
 10
5.910520
 20
2.305160
  0
VERTEX
  8
0
  6
CONTINUOUS
 10
5.868280
 20
2.303840
  0
VERTEX
  8
0
  6
CONTINUOUS
 10
5.803160
 20
2.295040
  0
VERTEX
  8
0
  6
CONTINUOUS
 10
5.759160
 20
2.284480
  0
VERTEX
  8
0
  6
CONTINUOUS
 10
5.714280
 20
2.269960
  0
VERTEX
  8
0
  6
CONTINUOUS
 10
5.668080
 20
2.250600
  0
VERTEX
  8
0
  6
CONTINUOUS
 10
5.621440
 20
2.226840
  0
VERTEX
  8
0
  6
CONTINUOUS
 10
5.572160
 20
2.197360
  0
VERTEX
  8
0
  6
CONTINUOUS
 10
5.490760
 20
2.268200
  0
VERTEX
  8
0
  6
CONTINUOUS
 10
5.462160
 20
2.243560
  0
VERTEX
  8
0
  6
CONTINUOUS
 10
5.432240
 20
2.225520
  0
VERTEX
  8
0
  6
CONTINUOUS
 10
5.411120
 20
2.216280
  0
VERTEX
  8
0
  6
CONTINUOUS
 10
5.389560
 20
2.209240
  0
VERTEX
  8
0
  6
CONTINUOUS
 10
5.367120
 20
2.203960
  0
VERTEX
  8
0
  6
CONTINUOUS
 10
5.322240
 20
2.199120
  0
VERTEX
  8
0
  6
CONTINUOUS
 10
5.278240
 20
2.201320
  0
VERTEX
  8
0
  6
CONTINUOUS
 10
5.256680
 20
2.204840
  0
VERTEX
  8
0
  6
CONTINUOUS
 10
5.216640
 20
2.216280
  0
VERTEX
  8
0
  6
CONTINUOUS
 10
5.198160
 20
2.223760
  0
VERTEX
  8
0
  6
CONTINUOUS
 10
5.181000
 20
2.232560
  0
VERTEX
  8
0
  6
CONTINUOUS
 10
5.165600
 20
2.242680
  0
VERTEX
  8
0
  6
CONTINUOUS
 10
5.057360
 20
2.123880
  0
VERTEX
  8
0
  6
CONTINUOUS
 10
5.056040
 20
2.123880
  0
VERTEX
  8
0
  6
CONTINUOUS
 10
5.604280
 20
1.578720
  0
VERTEX
  8
0
  6
CONTINUOUS
 10
6.592080
 20
1.578720
  0
VERTEX
  8
0
  6
CONTINUOUS
 10
6.594720
 20
1.580040
  0
SEQEND
  8
0
  0
TEXT
  8
0
 10
7.587800
 20
2.383040
 40
0.138085
  1
crown
 41
1.000000
  7
SN0
 71
     0
 72
     5
 11
8.030390
 21
2.383040
  0
TEXT
  8
0
 10
7.807360
 20
2.113320
 40
0.138085
  1
1
 41
1.000000
  7
SN0
 71
     0
 72
     5
 11
7.899884
 21
2.113320
  0
TEXT
  8
0
 10
4.029080
 20
0.577720
 40
0.138085
  1
BA  1
 41
1.000000
  7
SN0
 71
     0
 72
     5
 11
4.435281
 21
0.577720
  0
TEXT
  8
0
 10
3.780920
 20
0.386320
 40
0.138085
  1
3/4" x 2-1/4"
 41
1.000000
  7
SN0
 71
     0
 72
     5
 11
4.681614
 21
0.386320
  0
SOLID
  8
0
 62
    15
 10
3.190000
 20
1.335400
 11
3.839000
 21
0.949520
 12
3.136760
 22
1.271600
 13
3.785760
 23
0.885720
  0
POLYLINE
  8
0
  6
CONTINUOUS
 66
     1
 40
0.000000
 41
0.000000
  0
VERTEX
  8
0
  6
CONTINUOUS
 10
3.190000
 20
1.335400
  0
VERTEX
  8
0
  6
CONTINUOUS
 10
3.839000
 20
0.949520
  0
VERTEX
  8
0
  6
CONTINUOUS
 10
3.785760
 20
0.885720
  0
VERTEX
  8
0
  6
CONTINUOUS
 10
3.136760
 20
1.271600
  0
VERTEX
  8
0
  6
CONTINUOUS
 10
3.190000
 20
1.335400
  0
SEQEND
  8
0
  0
SOLID
  8
0
 62
     7
 10
3.981120
 20
2.295040
 11
4.630560
 21
1.909160
 12
3.971000
 22
2.064040
 13
4.620000
 23
1.678160
  0
POLYLINE
  8
0
  6
CONTINUOUS
 66
     1
 40
0.000000
 41
0.000000
  0
VERTEX
  8
0
  6
CONTINUOUS
 10
3.981120
 20
2.295040
  0
VERTEX
  8
0
  6
CONTINUOUS
 10
4.630560
 20
1.909160
  0
VERTEX
  8
0
  6
CONTINUOUS
 10
4.620000
 20
1.678160
  0
VERTEX
  8
0
  6
CONTINUOUS
 10
3.971000
 20
2.064040
  0
VERTEX
  8
0
  6
CONTINUOUS
 10
3.981120
 20
2.295040
  0
SEQEND
  8
0
  0
SOLID
  8
0
 62
    15
 10
3.971000
 20
2.064040
 11
4.620000
 21
1.678160
 12
3.835040
 22
2.060080
 13
4.484480
 23
1.674200
  0
POLYLINE
  8
0
  6
CONTINUOUS
 66
     1
 40
0.000000
 41
0.000000
  0
VERTEX
  8
0
  6
CONTINUOUS
 10
3.971000
 20
2.064040
  0
VERTEX
  8
0
  6
CONTINUOUS
 10
4.620000
 20
1.678160
  0
VERTEX
  8
0
  6
CONTINUOUS
 10
4.484480
 20
1.674200
  0
VERTEX
  8
0
  6
CONTINUOUS
 10
3.835040
 20
2.060080
  0
VERTEX
  8
0
  6
CONTINUOUS
 10
3.971000
 20
2.064040
  0
SEQEND
  8
0
  0
SOLID
  8
0
 62
     7
 10
3.835040
 20
2.060080
 11
4.484480
 21
1.674200
 12
3.835040
 22
1.950960
 13
4.484480
 23
1.564640
  0
POLYLINE
  8
0
  6
CONTINUOUS
 66
     1
 40
0.000000
 41
0.000000
  0
VERTEX
  8
0
  6
CONTINUOUS
 10
3.835040
 20
2.060080
  0
VERTEX
  8
0
  6
CONTINUOUS
 10
4.484480
 20
1.674200
  0
VERTEX
  8
0
  6
CONTINUOUS
 10
4.484480
 20
1.564640
  0
VERTEX
  8
0
  6
CONTINUOUS
 10
3.835040
 20
1.950960
  0
VERTEX
  8
0
  6
CONTINUOUS
 10
3.835040
 20
2.060080
  0
SEQEND
  8
0
  0
SOLID
  8
0
 62
    15
 10
3.835040
 20
1.950960
 11
4.484480
 21
1.564640
 12
3.728120
 22
1.932040
 13
4.377120
 23
1.546160
  0
POLYLINE
  8
0
  6
CONTINUOUS
 66
     1
 40
0.000000
 41
0.000000
  0
VERTEX
  8
0
  6
CONTINUOUS
 10
3.835040
 20
1.950960
  0
VERTEX
  8
0
  6
CONTINUOUS
 10
4.484480
 20
1.564640
  0
VERTEX
  8
0
  6
CONTINUOUS
 10
4.377120
 20
1.546160
  0
VERTEX
  8
0
  6
CONTINUOUS
 10
3.728120
 20
1.932040
  0
VERTEX
  8
0
  6
CONTINUOUS
 10
3.835040
 20
1.950960
  0
SEQEND
  8
0
  0
SOLID
  8
0
 62
    15
 10
3.728120
 20
1.932040
 11
4.377120
 21
1.546160
 12
3.637920
 22
1.900800
 13
4.287360
 23
1.514920
  0
POLYLINE
  8
0
  6
CONTINUOUS
 66
     1
 40
0.000000
 41
0.000000
  0
VERTEX
  8
0
  6
CONTINUOUS
 10
3.728120
 20
1.932040
  0
VERTEX
  8
0
  6
CONTINUOUS
 10
4.377120
 20
1.546160
  0
VERTEX
  8
0
  6
CONTINUOUS
 10
4.287360
 20
1.514920
  0
VERTEX
  8
0
  6
CONTINUOUS
 10
3.637920
 20
1.900800
  0
VERTEX
  8
0
  6
CONTINUOUS
 10
3.728120
 20
1.932040
  0
SEQEND
  8
0
  0
SOLID
  8
0
 62
    15
 10
3.637920
 20
1.900800
 11
4.287360
 21
1.514920
 12
3.562240
 22
1.859000
 13
4.211240
 23
1.473120
  0
POLYLINE
  8
0
  6
CONTINUOUS
 66
     1
 40
0.000000
 41
0.000000
  0
VERTEX
  8
0
  6
CONTINUOUS
 10
3.637920
 20
1.900800
  0
VERTEX
  8
0
  6
CONTINUOUS
 10
4.287360
 20
1.514920
  0
VERTEX
  8
0
  6
CONTINUOUS
 10
4.211240
 20
1.473120
  0
VERTEX
  8
0
  6
CONTINUOUS
 10
3.562240
 20
1.859000
  0
VERTEX
  8
0
  6
CONTINUOUS
 10
3.637920
 20
1.900800
  0
SEQEND
  8
0
  0
SOLID
  8
0
 62
    15
 10
3.562240
 20
1.859000
 11
4.211240
 21
1.473120
 12
3.498440
 22
1.807960
 13
4.147440
 23
1.421640
  0
POLYLINE
  8
0
  6
CONTINUOUS
 66
     1
 40
0.000000
 41
0.000000
  0
VERTEX
  8
0
  6
CONTINUOUS
 10
3.562240
 20
1.859000
  0
VERTEX
  8
0
  6
CONTINUOUS
 10
4.211240
 20
1.473120
  0
VERTEX
  8
0
  6
CONTINUOUS
 10
4.147440
 20
1.421640
  0
VERTEX
  8
0
  6
CONTINUOUS
 10
3.498440
 20
1.807960
  0
VERTEX
  8
0
  6
CONTINUOUS
 10
3.562240
 20
1.859000
  0
SEQEND
  8
0
  0
SOLID
  8
0
 62
    15
 10
3.498440
 20
1.807960
 11
4.147440
 21
1.421640
 12
3.444320
 22
1.749000
 13
4.093760
 23
1.363120
  0
POLYLINE
  8
0
  6
CONTINUOUS
 66
     1
 40
0.000000
 41
0.000000
  0
VERTEX
  8
0
  6
CONTINUOUS
 10
3.498440
 20
1.807960
  0
VERTEX
  8
0
  6
CONTINUOUS
 10
4.147440
 20
1.421640
  0
VERTEX
  8
0
  6
CONTINUOUS
 10
4.093760
 20
1.363120
  0
VERTEX
  8
0
  6
CONTINUOUS
 10
3.444320
 20
1.749000
  0
VERTEX
  8
0
  6
CONTINUOUS
 10
3.498440
 20
1.807960
  0
SEQEND
  8
0
  0
SOLID
  8
0
 62
    15
 10
3.444320
 20
1.749000
 11
4.093760
 21
1.363120
 12
3.397680
 22
1.684760
 13
4.046680
 23
1.298880
  0
POLYLINE
  8
0
  6
CONTINUOUS
 66
     1
 40
0.000000
 41
0.000000
  0
VERTEX
  8
0
  6
CONTINUOUS
 10
3.444320
 20
1.749000
  0
VERTEX
  8
0
  6
CONTINUOUS
 10
4.093760
 20
1.363120
  0
VERTEX
  8
0
  6
CONTINUOUS
 10
4.046680
 20
1.298880
  0
VERTEX
  8
0
  6
CONTINUOUS
 10
3.397680
 20
1.684760
  0
VERTEX
  8
0
  6
CONTINUOUS
 10
3.444320
 20
1.749000
  0
SEQEND
  8
0
  0
SOLID
  8
0
 62
     7
 10
3.397680
 20
1.684760
 11
4.046680
 21
1.298880
 12
3.316280
 22
1.545280
 13
3.965720
 23
1.159400
  0
POLYLINE
  8
0
  6
CONTINUOUS
 66
     1
 40
0.000000
 41
0.000000
  0
VERTEX
  8
0
  6
CONTINUOUS
 10
3.397680
 20
1.684760
  0
VERTEX
  8
0
  6
CONTINUOUS
 10
4.046680
 20
1.298880
  0
VERTEX
  8
0
  6
CONTINUOUS
 10
3.965720
 20
1.159400
  0
VERTEX
  8
0
  6
CONTINUOUS
 10
3.316280
 20
1.545280
  0
VERTEX
  8
0
  6
CONTINUOUS
 10
3.397680
 20
1.684760
  0
SEQEND
  8
0
  0
SOLID
  8
0
 62
     7
 10
3.316280
 20
1.545280
 11
3.965720
 21
1.159400
 12
3.296920
 22
1.509640
 13
3.945920
 23
1.123760
  0
POLYLINE
  8
0
  6
CONTINUOUS
 66
     1
 40
0.000000
 41
0.000000
  0
VERTEX
  8
0
  6
CONTINUOUS
 10
3.316280
 20
1.545280
  0
VERTEX
  8
0
  6
CONTINUOUS
 10
3.965720
 20
1.159400
  0
VERTEX
  8
0
  6
CONTINUOUS
 10
3.945920
 20
1.123760
  0
VERTEX
  8
0
  6
CONTINUOUS
 10
3.296920
 20
1.509640
  0
VERTEX
  8
0
  6
CONTINUOUS
 10
3.316280
 20
1.545280
  0
SEQEND
  8
0
  0
SOLID
  8
0
 62
     7
 10
3.296920
 20
1.509640
 11
3.945920
 21
1.123760
 12
3.277120
 22
1.474000
 13
3.926120
 23
1.087680
  0
POLYLINE
  8
0
  6
CONTINUOUS
 66
     1
 40
0.000000
 41
0.000000
  0
VERTEX
  8
0
  6
CONTINUOUS
 10
3.296920
 20
1.509640
  0
VERTEX
  8
0
  6
CONTINUOUS
 10
3.945920
 20
1.123760
  0
VERTEX
  8
0
  6
CONTINUOUS
 10
3.926120
 20
1.087680
  0
VERTEX
  8
0
  6
CONTINUOUS
 10
3.277120
 20
1.474000
  0
VERTEX
  8
0
  6
CONTINUOUS
 10
3.296920
 20
1.509640
  0
SEQEND
  8
0
  0
SOLID
  8
0
 62
    15
 10
3.277120
 20
1.474000
 11
3.926120
 21
1.087680
 12
3.235760
 22
1.403160
 13
3.884760
 23
1.017280
  0
POLYLINE
  8
0
  6
CONTINUOUS
 66
     1
 40
0.000000
 41
0.000000
  0
VERTEX
  8
0
  6
CONTINUOUS
 10
3.277120
 20
1.474000
  0
VERTEX
  8
0
  6
CONTINUOUS
 10
3.926120
 20
1.087680
  0
VERTEX
  8
0
  6
CONTINUOUS
 10
3.884760
 20
1.017280
  0
VERTEX
  8
0
  6
CONTINUOUS
 10
3.235760
 20
1.403160
  0
VERTEX
  8
0
  6
CONTINUOUS
 10
3.277120
 20
1.474000
  0
SEQEND
  8
0
  0
SOLID
  8
0
 62
    15
 10
3.235760
 20
1.403160
 11
3.884760
 21
1.017280
 12
3.190000
 22
1.335400
 13
3.839000
 23
0.949520
  0
POLYLINE
  8
0
  6
CONTINUOUS
 66
     1
 40
0.000000
 41
0.000000
  0
VERTEX
  8
0
  6
CONTINUOUS
 10
3.235760
 20
1.403160
  0
VERTEX
  8
0
  6
CONTINUOUS
 10
3.884760
 20
1.017280
  0
VERTEX
  8
0
  6
CONTINUOUS
 10
3.839000
 20
0.949520
  0
VERTEX
  8
0
  6
CONTINUOUS
 10
3.190000
 20
1.335400
  0
VERTEX
  8
0
  6
CONTINUOUS
 10
3.235760
 20
1.403160
  0
SEQEND
  8
0
  0
SOLID
  8
0
 62
     7
 10
3.981560
 20
2.296800
 11
4.630560
 21
1.910920
 12
3.981120
 22
2.295040
 13
4.630560
 23
1.909160
  0
POLYLINE
  8
0
  6
CONTINUOUS
 66
     1
 40
0.000000
 41
0.000000
  0
VERTEX
  8
0
  6
CONTINUOUS
 10
3.981560
 20
2.296800
  0
VERTEX
  8
0
  6
CONTINUOUS
 10
4.630560
 20
1.910920
  0
VERTEX
  8
0
  6
CONTINUOUS
 10
4.630560
 20
1.909160
  0
VERTEX
  8
0
  6
CONTINUOUS
 10
3.981120
 20
2.295040
  0
VERTEX
  8
0
  6
CONTINUOUS
 10
3.981560
 20
2.296800
  0
SEQEND
  8
0
  0
SOLID
  8
0
 62
    15
 10
3.136760
 20
1.271600
 11
3.785760
 21
0.885720
 12
3.074280
 22
1.214400
 13
3.723720
 23
0.828080
  0
POLYLINE
  8
0
  6
CONTINUOUS
 66
     1
 40
0.000000
 41
0.000000
  0
VERTEX
  8
0
  6
CONTINUOUS
 10
3.136760
 20
1.271600
  0
VERTEX
  8
0
  6
CONTINUOUS
 10
3.785760
 20
0.885720
  0
VERTEX
  8
0
  6
CONTINUOUS
 10
3.723720
 20
0.828080
  0
VERTEX
  8
0
  6
CONTINUOUS
 10
3.074280
 20
1.214400
  0
VERTEX
  8
0
  6
CONTINUOUS
 10
3.136760
 20
1.271600
  0
SEQEND
  8
0
  0
SOLID
  8
0
 62
    15
 10
3.074280
 20
1.214400
 11
3.723720
 21
0.828080
 12
3.000360
 22
1.164240
 13
3.649360
 23
0.778360
  0
POLYLINE
  8
0
  6
CONTINUOUS
 66
     1
 40
0.000000
 41
0.000000
  0
VERTEX
  8
0
  6
CONTINUOUS
 10
3.074280
 20
1.214400
  0
VERTEX
  8
0
  6
CONTINUOUS
 10
3.723720
 20
0.828080
  0
VERTEX
  8
0
  6
CONTINUOUS
 10
3.649360
 20
0.778360
  0
VERTEX
  8
0
  6
CONTINUOUS
 10
3.000360
 20
1.164240
  0
VERTEX
  8
0
  6
CONTINUOUS
 10
3.074280
 20
1.214400
  0
SEQEND
  8
0
  0
SOLID
  8
0
 62
    15
 10
3.000360
 20
1.164240
 11
3.649360
 21
0.778360
 12
2.912360
 22
1.124200
 13
3.561360
 23
0.737880
  0
POLYLINE
  8
0
  6
CONTINUOUS
 66
     1
 40
0.000000
 41
0.000000
  0
VERTEX
  8
0
  6
CONTINUOUS
 10
3.000360
 20
1.164240
  0
VERTEX
  8
0
  6
CONTINUOUS
 10
3.649360
 20
0.778360
  0
VERTEX
  8
0
  6
CONTINUOUS
 10
3.561360
 20
0.737880
  0
VERTEX
  8
0
  6
CONTINUOUS
 10
2.912360
 20
1.124200
  0
VERTEX
  8
0
  6
CONTINUOUS
 10
3.000360
 20
1.164240
  0
SEQEND
  8
0
  0
SOLID
  8
0
 62
    15
 10
2.912360
 20
1.124200
 11
3.561360
 21
0.737880
 12
2.807640
 22
1.094720
 13
3.456640
 23
0.708840
  0
POLYLINE
  8
0
  6
CONTINUOUS
 66
     1
 40
0.000000
 41
0.000000
  0
VERTEX
  8
0
  6
CONTINUOUS
 10
2.912360
 20
1.124200
  0
VERTEX
  8
0
  6
CONTINUOUS
 10
3.561360
 20
0.737880
  0
VERTEX
  8
0
  6
CONTINUOUS
 10
3.456640
 20
0.708840
  0
VERTEX
  8
0
  6
CONTINUOUS
 10
2.807640
 20
1.094720
  0
VERTEX
  8
0
  6
CONTINUOUS
 10
2.912360
 20
1.124200
  0
SEQEND
  8
0
  0
SOLID
  8
0
 62
    15
 10
2.807640
 20
1.094720
 11
3.456640
 21
0.708840
 12
2.806760
 22
1.093840
 13
3.455760
 23
0.707960
  0
POLYLINE
  8
0
  6
CONTINUOUS
 66
     1
 40
0.000000
 41
0.000000
  0
VERTEX
  8
0
  6
CONTINUOUS
 10
2.807640
 20
1.094720
  0
VERTEX
  8
0
  6
CONTINUOUS
 10
3.456640
 20
0.708840
  0
VERTEX
  8
0
  6
CONTINUOUS
 10
3.455760
 20
0.707960
  0
VERTEX
  8
0
  6
CONTINUOUS
 10
2.806760
 20
1.093840
  0
VERTEX
  8
0
  6
CONTINUOUS
 10
2.807640
 20
1.094720
  0
SEQEND
  8
0
  0
SOLID
  8
0
 62
     7
 10
2.806760
 20
1.093840
 11
3.455760
 21
0.707960
 12
2.799280
 22
0.986480
 13
3.448280
 23
0.600600
  0
POLYLINE
  8
0
  6
CONTINUOUS
 66
     1
 40
0.000000
 41
0.000000
  0
VERTEX
  8
0
  6
CONTINUOUS
 10
2.806760
 20
1.093840
  0
VERTEX
  8
0
  6
CONTINUOUS
 10
3.455760
 20
0.707960
  0
VERTEX
  8
0
  6
CONTINUOUS
 10
3.448280
 20
0.600600
  0
VERTEX
  8
0
  6
CONTINUOUS
 10
2.799280
 20
0.986480
  0
VERTEX
  8
0
  6
CONTINUOUS
 10
2.806760
 20
1.093840
  0
SEQEND
  8
0
  0
SOLID
  8
0
 62
    15
 10
2.799280
 20
0.986480
 11
3.448280
 21
0.600600
 12
2.797080
 22
0.986480
 13
3.446080
 23
0.600600
  0
POLYLINE
  8
0
  6
CONTINUOUS
 66
     1
 40
0.000000
 41
0.000000
  0
VERTEX
  8
0
  6
CONTINUOUS
 10
2.799280
 20
0.986480
  0
VERTEX
  8
0
  6
CONTINUOUS
 10
3.448280
 20
0.600600
  0
VERTEX
  8
0
  6
CONTINUOUS
 10
3.446080
 20
0.600600
  0
VERTEX
  8
0
  6
CONTINUOUS
 10
2.797080
 20
0.986480
  0
VERTEX
  8
0
  6
CONTINUOUS
 10
2.799280
 20
0.986480
  0
SEQEND
  8
0
  0
SOLID
  8
0
 62
    15
 10
2.797080
 20
0.986480
 11
3.446080
 21
0.600600
 12
2.750000
 22
0.981200
 13
3.399000
 23
0.595320
  0
POLYLINE
  8
0
  6
CONTINUOUS
 66
     1
 40
0.000000
 41
0.000000
  0
VERTEX
  8
0
  6
CONTINUOUS
 10
2.797080
 20
0.986480
  0
VERTEX
  8
0
  6
CONTINUOUS
 10
3.446080
 20
0.600600
  0
VERTEX
  8
0
  6
CONTINUOUS
 10
3.399000
 20
0.595320
  0
VERTEX
  8
0
  6
CONTINUOUS
 10
2.750000
 20
0.981200
  0
VERTEX
  8
0
  6
CONTINUOUS
 10
2.797080
 20
0.986480
  0
SEQEND
  8
0
  0
SOLID
  8
0
 62
    15
 10
2.750000
 20
0.981200
 11
3.399000
 21
0.595320
 12
2.706000
 22
0.966680
 13
3.355000
 23
0.580800
  0
POLYLINE
  8
0
  6
CONTINUOUS
 66
     1
 40
0.000000
 41
0.000000
  0
VERTEX
  8
0
  6
CONTINUOUS
 10
2.750000
 20
0.981200
  0
VERTEX
  8
0
  6
CONTINUOUS
 10
3.399000
 20
0.595320
  0
VERTEX
  8
0
  6
CONTINUOUS
 10
3.355000
 20
0.580800
  0
VERTEX
  8
0
  6
CONTINUOUS
 10
2.706000
 20
0.966680
  0
VERTEX
  8
0
  6
CONTINUOUS
 10
2.750000
 20
0.981200
  0
SEQEND
  8
0
  0
SOLID
  8
0
 62
    15
 10
2.706000
 20
0.966680
 11
3.355000
 21
0.580800
 12
2.666400
 22
0.944240
 13
3.315400
 23
0.558360
  0
POLYLINE
  8
0
  6
CONTINUOUS
 66
     1
 40
0.000000
 41
0.000000
  0
VERTEX
  8
0
  6
CONTINUOUS
 10
2.706000
 20
0.966680
  0
VERTEX
  8
0
  6
CONTINUOUS
 10
3.355000
 20
0.580800
  0
VERTEX
  8
0
  6
CONTINUOUS
 10
3.315400
 20
0.558360
  0
VERTEX
  8
0
  6
CONTINUOUS
 10
2.666400
 20
0.944240
  0
VERTEX
  8
0
  6
CONTINUOUS
 10
2.706000
 20
0.966680
  0
SEQEND
  8
0
  0
SOLID
  8
0
 62
    15
 10
2.666400
 20
0.944240
 11
3.315400
 21
0.558360
 12
2.631200
 22
0.916080
 13
3.280640
 23
0.530200
  0
POLYLINE
  8
0
  6
CONTINUOUS
 66
     1
 40
0.000000
 41
0.000000
  0
VERTEX
  8
0
  6
CONTINUOUS
 10
2.666400
 20
0.944240
  0
VERTEX
  8
0
  6
CONTINUOUS
 10
3.315400
 20
0.558360
  0
VERTEX
  8
0
  6
CONTINUOUS
 10
3.280640
 20
0.530200
  0
VERTEX
  8
0
  6
CONTINUOUS
 10
2.631200
 20
0.916080
  0
VERTEX
  8
0
  6
CONTINUOUS
 10
2.666400
 20
0.944240
  0
SEQEND
  8
0
  0
SOLID
  8
0
 62
    15
 10
2.631200
 20
0.916080
 11
3.280640
 21
0.530200
 12
2.577960
 22
0.847440
 13
3.226960
 23
0.461560
  0
POLYLINE
  8
0
  6
CONTINUOUS
 66
     1
 40
0.000000
 41
0.000000
  0
VERTEX
  8
0
  6
CONTINUOUS
 10
2.631200
 20
0.916080
  0
VERTEX
  8
0
  6
CONTINUOUS
 10
3.280640
 20
0.530200
  0
VERTEX
  8
0
  6
CONTINUOUS
 10
3.226960
 20
0.461560
  0
VERTEX
  8
0
  6
CONTINUOUS
 10
2.577960
 20
0.847440
  0
VERTEX
  8
0
  6
CONTINUOUS
 10
2.631200
 20
0.916080
  0
SEQEND
  8
0
  0
SOLID
  8
0
 62
     7
 10
2.577960
 20
0.847440
 11
3.226960
 21
0.461560
 12
2.551120
 22
0.774400
 13
3.200120
 23
0.388080
  0
POLYLINE
  8
0
  6
CONTINUOUS
 66
     1
 40
0.000000
 41
0.000000
  0
VERTEX
  8
0
  6
CONTINUOUS
 10
2.577960
 20
0.847440
  0
VERTEX
  8
0
  6
CONTINUOUS
 10
3.226960
 20
0.461560
  0
VERTEX
  8
0
  6
CONTINUOUS
 10
3.200120
 20
0.388080
  0
VERTEX
  8
0
  6
CONTINUOUS
 10
2.551120
 20
0.774400
  0
VERTEX
  8
0
  6
CONTINUOUS
 10
2.577960
 20
0.847440
  0
SEQEND
  8
0
  0
SOLID
  8
0
 62
    15
 10
2.551120
 20
0.774400
 11
3.200120
 21
0.388080
 12
2.390960
 22
0.781880
 13
3.039960
 23
0.396000
  0
POLYLINE
  8
0
  6
CONTINUOUS
 66
     1
 40
0.000000
 41
0.000000
  0
VERTEX
  8
0
  6
CONTINUOUS
 10
2.551120
 20
0.774400
  0
VERTEX
  8
0
  6
CONTINUOUS
 10
3.200120
 20
0.388080
  0
VERTEX
  8
0
  6
CONTINUOUS
 10
3.039960
 20
0.396000
  0
VERTEX
  8
0
  6
CONTINUOUS
 10
2.390960
 20
0.781880
  0
VERTEX
  8
0
  6
CONTINUOUS
 10
2.551120
 20
0.774400
  0
SEQEND
  8
0
  0
SOLID
  8
0
 62
    15
 10
2.390960
 20
0.781880
 11
3.039960
 21
0.396000
 12
2.390080
 22
0.781000
 13
3.039080
 23
0.394680
  0
POLYLINE
  8
0
  6
CONTINUOUS
 66
     1
 40
0.000000
 41
0.000000
  0
VERTEX
  8
0
  6
CONTINUOUS
 10
2.390960
 20
0.781880
  0
VERTEX
  8
0
  6
CONTINUOUS
 10
3.039960
 20
0.396000
  0
VERTEX
  8
0
  6
CONTINUOUS
 10
3.039080
 20
0.394680
  0
VERTEX
  8
0
  6
CONTINUOUS
 10
2.390080
 20
0.781000
  0
VERTEX
  8
0
  6
CONTINUOUS
 10
2.390960
 20
0.781880
  0
SEQEND
  8
0
  0
POLYLINE
  8
0
  6
CONTINUOUS
 66
     1
 40
0.000000
 41
0.000000
  0
VERTEX
  8
0
  6
CONTINUOUS
 10
3.093200
 20
2.253680
  0
VERTEX
  8
0
  6
CONTINUOUS
 10
3.981560
 20
2.296800
  0
VERTEX
  8
0
  6
CONTINUOUS
 10
3.981120
 20
2.295040
  0
VERTEX
  8
0
  6
CONTINUOUS
 10
3.971000
 20
2.064040
  0
VERTEX
  8
0
  6
CONTINUOUS
 10
3.835040
 20
2.060080
  0
VERTEX
  8
0
  6
CONTINUOUS
 10
3.835040
 20
1.950960
  0
VERTEX
  8
0
  6
CONTINUOUS
 10
3.728120
 20
1.932040
  0
VERTEX
  8
0
  6
CONTINUOUS
 10
3.637920
 20
1.900800
  0
VERTEX
  8
0
  6
CONTINUOUS
 10
3.562240
 20
1.859000
  0
VERTEX
  8
0
  6
CONTINUOUS
 10
3.498440
 20
1.807960
  0
VERTEX
  8
0
  6
CONTINUOUS
 10
3.444320
 20
1.749000
  0
VERTEX
  8
0
  6
CONTINUOUS
 10
3.397680
 20
1.684760
  0
VERTEX
  8
0
  6
CONTINUOUS
 10
3.316280
 20
1.545280
  0
VERTEX
  8
0
  6
CONTINUOUS
 10
3.296920
 20
1.509640
  0
VERTEX
  8
0
  6
CONTINUOUS
 10
3.277120
 20
1.474000
  0
VERTEX
  8
0
  6
CONTINUOUS
 10
3.235760
 20
1.403160
  0
VERTEX
  8
0
  6
CONTINUOUS
 10
3.190000
 20
1.335400
  0
VERTEX
  8
0
  6
CONTINUOUS
 10
3.136760
 20
1.271600
  0
VERTEX
  8
0
  6
CONTINUOUS
 10
3.074280
 20
1.214400
  0
VERTEX
  8
0
  6
CONTINUOUS
 10
3.000360
 20
1.164240
  0
VERTEX
  8
0
  6
CONTINUOUS
 10
2.912360
 20
1.124200
  0
VERTEX
  8
0
  6
CONTINUOUS
 10
2.807640
 20
1.094720
  0
VERTEX
  8
0
  6
CONTINUOUS
 10
2.806760
 20
1.093840
  0
VERTEX
  8
0
  6
CONTINUOUS
 10
2.799280
 20
0.986480
  0
VERTEX
  8
0
  6
CONTINUOUS
 10
2.797080
 20
0.986480
  0
VERTEX
  8
0
  6
CONTINUOUS
 10
2.750000
 20
0.981200
  0
VERTEX
  8
0
  6
CONTINUOUS
 10
2.706000
 20
0.966680
  0
VERTEX
  8
0
  6
CONTINUOUS
 10
2.666400
 20
0.944240
  0
VERTEX
  8
0
  6
CONTINUOUS
 10
2.631200
 20
0.916080
  0
VERTEX
  8
0
  6
CONTINUOUS
 10
2.577960
 20
0.847440
  0
VERTEX
  8
0
  6
CONTINUOUS
 10
2.551120
 20
0.774400
  0
VERTEX
  8
0
  6
CONTINUOUS
 10
2.390960
 20
0.781880
  0
VERTEX
  8
0
  6
CONTINUOUS
 10
2.390080
 20
0.781000
  0
VERTEX
  8
0
  6
CONTINUOUS
 10
2.391840
 20
1.554080
  0
VERTEX
  8
0
  6
CONTINUOUS
 10
3.090560
 20
2.252360
  0
VERTEX
  8
0
  6
CONTINUOUS
 10
3.093200
 20
2.253680
  0
SEQEND
  8
0
  0
ENDSEC
  0
EOF
