  0
SECTION
  2
HEADER
  9
$ACADVER
  1
AC1014
  9
$ACADMAINTVER
 70
     9
  9
$DWGCODEPAGE
  3
ANSI_1252
  9
$INSBASE
 10
0.0
 20
0.0
 30
0.0
  9
$EXTMIN
 10
-2.167531496062992
 20
-1.319157480314961
 30
0.0
  9
$EXTMAX
 10
1.941165354330709
 20
3.30751968503937
 30
0.0
  9
$LIMMIN
 10
0.0
 20
0.0
  9
$LIMMAX
 10
12.0
 20
9.0
  9
$ORTHOMODE
 70
     0
  9
$REGENMODE
 70
     1
  9
$FILLMODE
 70
     1
  9
$QTEXTMODE
 70
     0
  9
$MIRRTEXT
 70
     1
  9
$DRAGMODE
 70
     2
  9
$LTSCALE
 40
1.0
  9
$OSMODE
 70
    37
  9
$ATTMODE
 70
     1
  9
$TEXTSIZE
 40
0.2
  9
$TRACEWID
 40
0.05
  9
$TEXTSTYLE
  7
STANDARD
  9
$CLAYER
  8
0
  9
$CELTYPE
  6
BYLAYER
  9
$CECOLOR
 62
   256
  9
$CELTSCALE
 40
1.0
  9
$DELOBJ
 70
     1
  9
$DISPSILH
 70
     0
  9
$DIMSCALE
 40
1.0
  9
$DIMASZ
 40
0.18
  9
$DIMEXO
 40
0.0625
  9
$DIMDLI
 40
0.38
  9
$DIMRND
 40
0.0
  9
$DIMDLE
 40
0.0
  9
$DIMEXE
 40
0.18
  9
$DIMTP
 40
0.0
  9
$DIMTM
 40
0.0
  9
$DIMTXT
 40
0.18
  9
$DIMCEN
 40
0.09
  9
$DIMTSZ
 40
0.0
  9
$DIMTOL
 70
     0
  9
$DIMLIM
 70
     0
  9
$DIMTIH
 70
     1
  9
$DIMTOH
 70
     1
  9
$DIMSE1
 70
     0
  9
$DIMSE2
 70
     0
  9
$DIMTAD
 70
     0
  9
$DIMZIN
 70
     0
  9
$DIMBLK
  1

  9
$DIMASO
 70
     1
  9
$DIMSHO
 70
     1
  9
$DIMPOST
  1

  9
$DIMAPOST
  1

  9
$DIMALT
 70
     0
  9
$DIMALTD
 70
     2
  9
$DIMALTF
 40
25.4
  9
$DIMLFAC
 40
1.0
  9
$DIMTOFL
 70
     0
  9
$DIMTVP
 40
0.0
  9
$DIMTIX
 70
     0
  9
$DIMSOXD
 70
     0
  9
$DIMSAH
 70
     0
  9
$DIMBLK1
  1

  9
$DIMBLK2
  1

  9
$DIMSTYLE
  2
STANDARD
  9
$DIMCLRD
 70
     0
  9
$DIMCLRE
 70
     0
  9
$DIMCLRT
 70
     0
  9
$DIMTFAC
 40
1.0
  9
$DIMGAP
 40
0.09
  9
$DIMJUST
 70
     0
  9
$DIMSD1
 70
     0
  9
$DIMSD2
 70
     0
  9
$DIMTOLJ
 70
     1
  9
$DIMTZIN
 70
     0
  9
$DIMALTZ
 70
     0
  9
$DIMALTTZ
 70
     0
  9
$DIMFIT
 70
     3
  9
$DIMUPT
 70
     0
  9
$DIMUNIT
 70
     2
  9
$DIMDEC
 70
     4
  9
$DIMTDEC
 70
     4
  9
$DIMALTU
 70
     2
  9
$DIMALTTD
 70
     2
  9
$DIMTXSTY
  7
STANDARD
  9
$DIMAUNIT
 70
     0
  9
$LUNITS
 70
     2
  9
$LUPREC
 70
     4
  9
$SKETCHINC
 40
0.1
  9
$FILLETRAD
 40
0.5
  9
$AUNITS
 70
     0
  9
$AUPREC
 70
     0
  9
$MENU
  1
.
  9
$ELEVATION
 40
0.0
  9
$PELEVATION
 40
0.0
  9
$THICKNESS
 40
0.0
  9
$LIMCHECK
 70
     0
  9
$CHAMFERA
 40
0.5
  9
$CHAMFERB
 40
0.5
  9
$CHAMFERC
 40
1.0
  9
$CHAMFERD
 40
0.0
  9
$SKPOLY
 70
     0
  9
$TDCREATE
 40
2454124.378925579
  9
$TDUPDATE
 40
2454124.37892559
  9
$TDINDWG
 40
0.0000000116
  9
$TDUSRTIMER
 40
0.0000000116
  9
$USRTIMER
 70
     1
  9
$ANGBASE
 50
0.0
  9
$ANGDIR
 70
     0
  9
$PDMODE
 70
     0
  9
$PDSIZE
 40
0.0
  9
$PLINEWID
 40
0.0
  9
$COORDS
 70
     1
  9
$SPLFRAME
 70
     0
  9
$SPLINETYPE
 70
     6
  9
$SPLINESEGS
 70
     8
  9
$ATTDIA
 70
     0
  9
$ATTREQ
 70
     1
  9
$HANDLING
 70
     1
  9
$HANDSEED
  5
A0
  9
$SURFTAB1
 70
     6
  9
$SURFTAB2
 70
     6
  9
$SURFTYPE
 70
     6
  9
$SURFU
 70
     6
  9
$SURFV
 70
     6
  9
$UCSNAME
  2

  9
$UCSORG
 10
0.0
 20
0.0
 30
0.0
  9
$UCSXDIR
 10
1.0
 20
0.0
 30
0.0
  9
$UCSYDIR
 10
0.0
 20
1.0
 30
0.0
  9
$PUCSNAME
  2

  9
$PUCSORG
 10
0.0
 20
0.0
 30
0.0
  9
$PUCSXDIR
 10
1.0
 20
0.0
 30
0.0
  9
$PUCSYDIR
 10
0.0
 20
1.0
 30
0.0
  9
$USERI1
 70
     0
  9
$USERI2
 70
     0
  9
$USERI3
 70
     0
  9
$USERI4
 70
     0
  9
$USERI5
 70
     0
  9
$USERR1
 40
0.0
  9
$USERR2
 40
0.0
  9
$USERR3
 40
0.0
  9
$USERR4
 40
0.0
  9
$USERR5
 40
0.0
  9
$WORLDVIEW
 70
     1
  9
$SHADEDGE
 70
     3
  9
$SHADEDIF
 70
    70
  9
$TILEMODE
 70
     1
  9
$MAXACTVP
 70
    64
  9
$PINSBASE
 10
0.0
 20
0.0
 30
0.0
  9
$PLIMCHECK
 70
     0
  9
$PEXTMIN
 10
1.000000000000000E+20
 20
1.000000000000000E+20
 30
1.000000000000000E+20
  9
$PEXTMAX
 10
-1.000000000000000E+20
 20
-1.000000000000000E+20
 30
-1.000000000000000E+20
  9
$PLIMMIN
 10
0.0
 20
0.0
  9
$PLIMMAX
 10
12.0
 20
9.0
  9
$UNITMODE
 70
     0
  9
$VISRETAIN
 70
     1
  9
$PLINEGEN
 70
     0
  9
$PSLTSCALE
 70
     1
  9
$TREEDEPTH
 70
  3020
  9
$PICKSTYLE
 70
     1
  9
$CMLSTYLE
  2
STANDARD
  9
$CMLJUST
 70
     0
  9
$CMLSCALE
 40
1.0
  9
$PROXYGRAPHICS
 70
     1
  9
$MEASUREMENT
 70
     0
  0
ENDSEC
  0
SECTION
  2
CLASSES
  0
CLASS
  1
ACDBDICTIONARYWDFLT
  2
AcDbDictionaryWithDefault
  3
ObjectDBX Classes
 90
        0
280
     0
281
     0
  0
CLASS
  1
XRECORD
  2
AcDbXrecord
  3
AutoCAD 2000
 90
        0
280
     0
281
     0
  0
CLASS
  1
LWPOLYLINE
  2
AcDbPolyline
  3
AutoCAD 2000
 90
        0
280
     0
281
     1
  0
CLASS
  1
HATCH
  2
AcDbHatch
  3
AutoCAD 2000
 90
        0
280
     0
281
     1
  0
CLASS
  1
ACDBPLACEHOLDER
  2
AcDbPlaceHolder
  3
ObjectDBX Classes
 90
        0
280
     0
281
     0
  0
CLASS
  1
LAYOUT
  2
AcDbLayout
  3
ObjectDBX Classes
 90
        0
280
     0
281
     0
  0
ENDSEC
  0
SECTION
  2
TABLES
  0
TABLE
  2
VPORT
  5
8
330
0
100
AcDbSymbolTable
 70
     2
  0
VPORT
  5
29
102
{ACAD_XDICTIONARY
360
9E
102
}
330
8
100
AcDbSymbolTableRecord
100
AcDbViewportTableRecord
  2
*ACTIVE
 70
     0
 10
0.0
 20
0.0
 11
1.0
 21
1.0
 12
10.42990654205607
 22
4.5
 13
0.0
 23
0.0
 14
0.5
 24
0.5
 15
0.5
 25
0.5
 16
0.0
 26
0.0
 36
1.0
 17
0.0
 27
0.0
 37
0.0
 40
9.0
 41
1.972972972850329
 42
50.0
 43
0.0
 44
0.0
 50
0.0
 51
0.0
 71
     0
 72
   100
 73
     1
 74
     3
 75
     0
 76
     0
 77
     0
 78
     0
  0
ENDTAB
  0
TABLE
  2
LTYPE
  5
5
330
0
100
AcDbSymbolTable
 70
     1
  0
LTYPE
  5
14
330
5
100
AcDbSymbolTableRecord
100
AcDbLinetypeTableRecord
  2
BYBLOCK
 70
     0
  3

 72
    65
 73
     0
 40
0.0
  0
LTYPE
  5
15
330
5
100
AcDbSymbolTableRecord
100
AcDbLinetypeTableRecord
  2
BYLAYER
 70
     0
  3

 72
    65
 73
     0
 40
0.0
  0
LTYPE
  5
16
330
5
100
AcDbSymbolTableRecord
100
AcDbLinetypeTableRecord
  2
CONTINUOUS
 70
     0
  3
Solid line
 72
    65
 73
     0
 40
0.0
  0
ENDTAB
  0
TABLE
  2
LAYER
  5
2
330
0
100
AcDbSymbolTable
 70
     2
  0
LAYER
  5
10
330
2
100
AcDbSymbolTableRecord
100
AcDbLayerTableRecord
  2
0
 70
     0
 62
     7
  6
CONTINUOUS
  0
LAYER
  5
2B
330
2
100
AcDbSymbolTableRecord
100
AcDbLayerTableRecord
  2
LAYER_1
 70
     0
 62
     7
  6
CONTINUOUS
  0
ENDTAB
  0
TABLE
  2
STYLE
  5
3
330
0
100
AcDbSymbolTable
 70
     1
  0
STYLE
  5
11
330
3
100
AcDbSymbolTableRecord
100
AcDbTextStyleTableRecord
  2
STANDARD
 70
     0
 40
0.0
 41
1.0
 50
0.0
 71
     0
 42
0.2
  3
txt
  4

  0
ENDTAB
  0
TABLE
  2
VIEW
  5
6
330
0
100
AcDbSymbolTable
 70
     0
  0
ENDTAB
  0
TABLE
  2
UCS
  5
7
330
0
100
AcDbSymbolTable
 70
     0
  0
ENDTAB
  0
TABLE
  2
APPID
  5
9
330
0
100
AcDbSymbolTable
 70
     2
  0
APPID
  5
12
330
9
100
AcDbSymbolTableRecord
100
AcDbRegAppTableRecord
  2
ACAD
 70
     0
  0
APPID
  5
2A
330
9
100
AcDbSymbolTableRecord
100
AcDbRegAppTableRecord
  2
ODA
 70
     0
  0
ENDTAB
  0
TABLE
  2
DIMSTYLE
  5
A
330
0
100
AcDbSymbolTable
 70
     1
  0
DIMSTYLE
105
27
330
A
100
AcDbSymbolTableRecord
100
AcDbDimStyleTableRecord
  2
STANDARD
 70
     0
  3

  4

  5

  6

  7

 40
1.0
 41
0.18
 42
0.0625
 43
0.38
 44
0.18
 45
0.0
 46
0.0
 47
0.0
 48
0.0
140
0.18
141
0.09
142
0.0
143
25.4
144
1.0
145
0.0
146
1.0
147
0.09
 71
     0
 72
     0
 73
     1
 74
     1
 75
     0
 76
     0
 77
     0
 78
     0
170
     0
171
     2
172
     0
173
     0
174
     0
175
     0
176
     0
177
     0
178
     0
270
     2
271
     4
272
     4
273
     2
274
     2
340
11
275
     0
280
     0
281
     0
282
     0
283
     1
284
     0
285
     0
286
     0
287
     3
288
     0
  0
ENDTAB
  0
TABLE
  2
BLOCK_RECORD
  5
1
330
0
100
AcDbSymbolTable
 70
     1
  0
BLOCK_RECORD
  5
1F
330
1
100
AcDbSymbolTableRecord
100
AcDbBlockTableRecord
  2
*MODEL_SPACE
  0
BLOCK_RECORD
  5
1B
330
1
100
AcDbSymbolTableRecord
100
AcDbBlockTableRecord
  2
*PAPER_SPACE
  0
ENDTAB
  0
ENDSEC
  0
SECTION
  2
BLOCKS
  0
BLOCK
  5
20
330
1F
100
AcDbEntity
  8
0
100
AcDbBlockBegin
  2
*MODEL_SPACE
 70
     0
 71
     0
 10
0.0
 20
0.0
 30
0.0
  3
*MODEL_SPACE
  1

  0
ENDBLK
  5
21
330
1F
100
AcDbEntity
  8
0
100
AcDbBlockEnd
  0
BLOCK
  5
1C
330
1B
100
AcDbEntity
 67
     1
  8
0
100
AcDbBlockBegin
  2
*PAPER_SPACE
 70
     0
 71
     0
 10
0.0
 20
0.0
 30
0.0
  3
*PAPER_SPACE
  1

  0
ENDBLK
  5
1D
330
1B
100
AcDbEntity
 67
     1
  8
0
100
AcDbBlockEnd
  0
ENDSEC
  0
SECTION
  2
ENTITIES
  0
SPLINE
  5
2C
330
1F
100
AcDbEntity
  8
LAYER_1
 62
   250
100
AcDbSpline
210
0.0
220
0.0
230
1.0
 70
    11
 71
     3
 72
    36
 73
    32
 74
     0
 42
0.0000000001
 43
0.0000000001
 40
0.0
 40
0.0
 40
0.0
 40
0.0
 40
0.125
 40
0.125
 40
0.125
 40
0.125
 40
0.25
 40
0.25
 40
0.25
 40
0.25
 40
0.375
 40
0.375
 40
0.375
 40
0.375
 40
0.5
 40
0.5
 40
0.5
 40
0.5
 40
0.625
 40
0.625
 40
0.625
 40
0.625
 40
0.75
 40
0.75
 40
0.75
 40
0.75
 40
0.875
 40
0.875
 40
0.875
 40
0.875
 40
1.0
 40
1.0
 40
1.0
 40
1.0
 10
1.838066929133858
 20
0.0280905511811024
 30
0.0
 10
1.838066929133858
 20
0.0971141732283465
 30
0.0
 10
1.782090551181103
 20
0.1530905511811024
 30
0.0
 10
1.713066929133858
 20
0.1530905511811024
 30
0.0
 10
1.713066929133858
 20
0.1530905511811024
 30
0.0
 10
1.644043307086614
 20
0.1530905511811024
 30
0.0
 10
1.588066929133858
 20
0.0971141732283465
 30
0.0
 10
1.588066929133858
 20
0.0280905511811024
 30
0.0
 10
1.588066929133858
 20
0.0280905511811024
 30
0.0
 10
1.588066929133858
 20
0.0280905511811024
 30
0.0
 10
-1.910586614173228
 20
0.0280905511811024
 30
0.0
 10
-1.910586614173228
 20
0.0280905511811024
 30
0.0
 10
-1.910586614173228
 20
0.0280905511811024
 30
0.0
 10
-1.910586614173228
 20
0.0971141732283465
 30
0.0
 10
-1.966562992125984
 20
0.1530905511811024
 30
0.0
 10
-2.035586614173229
 20
0.1530905511811024
 30
0.0
 10
-2.035586614173229
 20
0.1530905511811024
 30
0.0
 10
-2.104610236220473
 20
0.1530905511811024
 30
0.0
 10
-2.160586614173229
 20
0.0971141732283465
 30
0.0
 10
-2.160586614173229
 20
0.0280905511811024
 30
0.0
 10
-2.160586614173229
 20
0.0280905511811024
 30
0.0
 10
-2.160586614173229
 20
0.0280905511811024
 30
0.0
 10
-2.160586614173229
 20
-0.8471968503937009
 30
0.0
 10
-2.160586614173229
 20
-0.8471968503937009
 30
0.0
 10
-2.160586614173229
 20
-0.8471968503937009
 30
0.0
 10
-2.160586614173229
 20
-0.8471968503937009
 30
0.0
 10
1.839413385826772
 20
-0.8471968503937009
 30
0.0
 10
1.839413385826772
 20
-0.8471968503937009
 30
0.0
 10
1.839413385826772
 20
-0.8471968503937009
 30
0.0
 10
1.839413385826772
 20
-0.8471968503937009
 30
0.0
 10
1.838066929133858
 20
0.0280905511811024
 30
0.0
 10
1.838066929133858
 20
0.0280905511811024
 30
0.0
  0
SPLINE
  5
2D
330
1F
100
AcDbEntity
  8
LAYER_1
 62
   250
100
AcDbSpline
210
0.0
220
0.0
230
1.0
 70
    11
 71
     3
 72
   104
 73
   100
 74
     0
 42
0.0000000001
 43
0.0000000001
 40
0.0
 40
0.0
 40
0.0
 40
0.0
 40
0.04
 40
0.04
 40
0.04
 40
0.04
 40
0.08
 40
0.08
 40
0.08
 40
0.08
 40
0.12
 40
0.12
 40
0.12
 40
0.12
 40
0.16
 40
0.16
 40
0.16
 40
0.16
 40
0.2
 40
0.2
 40
0.2
 40
0.2
 40
0.24
 40
0.24
 40
0.24
 40
0.24
 40
0.28
 40
0.28
 40
0.28
 40
0.28
 40
0.32
 40
0.32
 40
0.32
 40
0.32
 40
0.36
 40
0.36
 40
0.36
 40
0.36
 40
0.4
 40
0.4
 40
0.4
 40
0.4
 40
0.44
 40
0.44
 40
0.44
 40
0.44
 40
0.4799999999999999
 40
0.4799999999999999
 40
0.4799999999999999
 40
0.4799999999999999
 40
0.5199999999999999
 40
0.5199999999999999
 40
0.5199999999999999
 40
0.5199999999999999
 40
0.5599999999999999
 40
0.5599999999999999
 40
0.5599999999999999
 40
0.5599999999999999
 40
0.6
 40
0.6
 40
0.6
 40
0.6
 40
0.64
 40
0.64
 40
0.64
 40
0.64
 40
0.6800000000000001
 40
0.6800000000000001
 40
0.6800000000000001
 40
0.6800000000000001
 40
0.7200000000000001
 40
0.7200000000000001
 40
0.7200000000000001
 40
0.7200000000000001
 40
0.7600000000000001
 40
0.7600000000000001
 40
0.7600000000000001
 40
0.7600000000000001
 40
0.8000000000000002
 40
0.8000000000000002
 40
0.8000000000000002
 40
0.8000000000000002
 40
0.8400000000000002
 40
0.8400000000000002
 40
0.8400000000000002
 40
0.8400000000000002
 40
0.8800000000000002
 40
0.8800000000000002
 40
0.8800000000000002
 40
0.8800000000000002
 40
0.9200000000000003
 40
0.9200000000000003
 40
0.9200000000000003
 40
0.9200000000000003
 40
0.9600000000000003
 40
0.9600000000000003
 40
0.9600000000000003
 40
0.9600000000000003
 40
1.0
 40
1.0
 40
1.0
 40
1.0
 10
-0.4163031496062992
 20
-1.018129921259843
 30
0.0
 10
-0.4163031496062992
 20
-1.018129921259843
 30
0.0
 10
-0.3623307086614173
 20
-1.018129921259843
 30
0.0
 10
-0.3623307086614173
 20
-1.018129921259843
 30
0.0
 10
-0.3623307086614173
 20
-1.018129921259843
 30
0.0
 10
-0.3491614173228347
 20
-1.018129921259843
 30
0.0
 10
-0.3401338582677165
 20
-1.018740157480315
 30
0.0
 10
-0.335248031496063
 20
-1.019937007874016
 30
0.0
 10
-0.335248031496063
 20
-1.019937007874016
 30
0.0
 10
-0.3280236220472441
 20
-1.021657480314961
 30
0.0
 10
-0.3223307086614173
 20
-1.024795275590551
 30
0.0
 10
-0.3181062992125984
 20
-1.029354330708661
 30
0.0
 10
-0.3181062992125984
 20
-1.029354330708661
 30
0.0
 10
-0.3139133858267716
 20
-1.033909448818898
 30
0.0
 10
-0.3118031496062992
 20
-1.039409448818898
 30
0.0
 10
-0.3118031496062992
 20
-1.045795275590551
 30
0.0
 10
-0.3118031496062992
 20
-1.045795275590551
 30
0.0
 10
-0.3118031496062992
 20
-1.050409448818898
 30
0.0
 10
-0.3129133858267716
 20
-1.054547244094488
 30
0.0
 10
-0.3151338582677166
 20
-1.058212598425197
 30
0.0
 10
-0.3151338582677166
 20
-1.058212598425197
 30
0.0
 10
-0.3173582677165355
 20
-1.06188188976378
 30
0.0
 10
-0.3206062992125984
 20
-1.06501968503937
 30
0.0
 10
-0.3248307086614173
 20
-1.067602362204724
 30
0.0
 10
-0.3248307086614173
 20
-1.067602362204724
 30
0.0
 10
-0.3275511811023622
 20
-1.069295275590551
 30
0.0
 10
-0.3312204724409449
 20
-1.070740157480315
 30
0.0
 10
-0.3358858267716536
 20
-1.071937007874016
 30
0.0
 10
-0.3358858267716536
 20
-1.071937007874016
 30
0.0
 10
-0.3299685039370079
 20
-1.07301968503937
 30
0.0
 10
-0.3254685039370079
 20
-1.074322834645669
 30
0.0
 10
-0.3223858267716536
 20
-1.075822834645669
 30
0.0
 10
-0.3223858267716536
 20
-1.075822834645669
 30
0.0
 10
-0.3177204724409449
 20
-1.078102362204725
 30
0.0
 10
-0.3140236220472441
 20
-1.081350393700787
 30
0.0
 10
-0.3113307086614173
 20
-1.085602362204724
 30
0.0
 10
-0.3113307086614173
 20
-1.085602362204724
 30
0.0
 10
-0.3086062992125984
 20
-1.089822834645669
 30
0.0
 10
-0.307248031496063
 20
-1.094602362204725
 30
0.0
 10
-0.307248031496063
 20
-1.099909448818898
 30
0.0
 10
-0.307248031496063
 20
-1.099909448818898
 30
0.0
 10
-0.307248031496063
 20
-1.105074803149606
 30
0.0
 10
-0.3085787401574803
 20
-1.109850393700788
 30
0.0
 10
-0.311248031496063
 20
-1.114240157480315
 30
0.0
 10
-0.311248031496063
 20
-1.114240157480315
 30
0.0
 10
-0.3138858267716536
 20
-1.118629921259843
 30
0.0
 10
-0.3176614173228347
 20
-1.122240157480315
 30
0.0
 10
-0.322496062992126
 20
-1.125074803149606
 30
0.0
 10
-0.322496062992126
 20
-1.125074803149606
 30
0.0
 10
-0.3273582677165354
 20
-1.127877952755906
 30
0.0
 10
-0.3330236220472441
 20
-1.129685039370079
 30
0.0
 10
-0.3394685039370079
 20
-1.130492125984252
 30
0.0
 10
-0.3394685039370079
 20
-1.130492125984252
 30
0.0
 10
-0.3459409448818898
 20
-1.131267716535433
 30
0.0
 10
-0.3525787401574803
 20
-1.131657480314961
 30
0.0
 10
-0.3594133858267717
 20
-1.131657480314961
 30
0.0
 10
-0.3594133858267717
 20
-1.131657480314961
 30
0.0
 10
-0.3594133858267717
 20
-1.131657480314961
 30
0.0
 10
-0.4163031496062992
 20
-1.131657480314961
 30
0.0
 10
-0.4163031496062992
 20
-1.131657480314961
 30
0.0
 10
-0.4163031496062992
 20
-1.131657480314961
 30
0.0
 10
-0.4163031496062992
 20
-1.131657480314961
 30
0.0
 10
-0.4163031496062992
 20
-1.124822834645669
 30
0.0
 10
-0.4163031496062992
 20
-1.124822834645669
 30
0.0
 10
-0.4163031496062992
 20
-1.124822834645669
 30
0.0
 10
-0.4163031496062992
 20
-1.124822834645669
 30
0.0
 10
-0.4124685039370079
 20
-1.124822834645669
 30
0.0
 10
-0.4124685039370079
 20
-1.124822834645669
 30
0.0
 10
-0.4124685039370079
 20
-1.124822834645669
 30
0.0
 10
-0.4087716535433071
 20
-1.124822834645669
 30
0.0
 10
-0.4062716535433071
 20
-1.124240157480315
 30
0.0
 10
-0.4049133858267717
 20
-1.123102362204725
 30
0.0
 10
-0.4049133858267717
 20
-1.123102362204725
 30
0.0
 10
-0.4029409448818898
 20
-1.121547244094488
 30
0.0
 10
-0.4019685039370079
 20
-1.118937007874016
 30
0.0
 10
-0.4019685039370079
 20
-1.115295275590551
 30
0.0
 10
-0.4019685039370079
 20
-1.115295275590551
 30
0.0
 10
-0.4019685039370079
 20
-1.115295275590551
 30
0.0
 10
-0.4019685039370079
 20
-1.036437007874016
 30
0.0
 10
-0.4019685039370079
 20
-1.036437007874016
 30
0.0
 10
-0.4019685039370079
 20
-1.036437007874016
 30
0.0
 10
-0.4019685039370079
 20
-1.032740157480315
 30
0.0
 10
-0.4022716535433071
 20
-1.030240157480315
 30
0.0
 10
-0.4028582677165354
 20
-1.02888188976378
 30
0.0
 10
-0.4028582677165354
 20
-1.02888188976378
 30
0.0
 10
-0.4034685039370079
 20
-1.02751968503937
 30
0.0
 10
-0.4043582677165354
 20
-1.026547244094488
 30
0.0
 10
-0.4055511811023622
 20
-1.025937007874016
 30
0.0
 10
-0.4055511811023622
 20
-1.025937007874016
 30
0.0
 10
-0.406744094488189
 20
-1.025354330708661
 30
0.0
 10
-0.4090511811023622
 20
-1.025047244094488
 30
0.0
 10
-0.4124685039370079
 20
-1.025047244094488
 30
0.0
 10
-0.4124685039370079
 20
-1.025047244094488
 30
0.0
 10
-0.4124685039370079
 20
-1.025047244094488
 30
0.0
 10
-0.4163031496062992
 20
-1.025047244094488
 30
0.0
 10
-0.4163031496062992
 20
-1.025047244094488
 30
0.0
 10
-0.4163031496062992
 20
-1.025047244094488
 30
0.0
 10
-0.4163031496062992
 20
-1.025047244094488
 30
0.0
 10
-0.4163031496062992
 20
-1.018129921259843
 30
0.0
 10
-0.4163031496062992
 20
-1.018129921259843
 30
0.0
  0
SPLINE
  5
2E
330
1F
100
AcDbEntity
  8
LAYER_1
 62
   250
100
AcDbSpline
210
0.0
220
0.0
230
1.0
 70
    11
 71
     3
 72
    40
 73
    36
 74
     0
 42
0.0000000001
 43
0.0000000001
 40
0.0
 40
0.0
 40
0.0
 40
0.0
 40
0.1111111111111111
 40
0.1111111111111111
 40
0.1111111111111111
 40
0.1111111111111111
 40
0.2222222222222222
 40
0.2222222222222222
 40
0.2222222222222222
 40
0.2222222222222222
 40
0.3333333333333333
 40
0.3333333333333333
 40
0.3333333333333333
 40
0.3333333333333333
 40
0.4444444444444444
 40
0.4444444444444444
 40
0.4444444444444444
 40
0.4444444444444444
 40
0.5555555555555556
 40
0.5555555555555556
 40
0.5555555555555556
 40
0.5555555555555556
 40
0.6666666666666667
 40
0.6666666666666667
 40
0.6666666666666667
 40
0.6666666666666667
 40
0.7777777777777779
 40
0.7777777777777779
 40
0.7777777777777779
 40
0.7777777777777779
 40
0.8888888888888891
 40
0.8888888888888891
 40
0.8888888888888891
 40
0.8888888888888891
 40
1.0
 40
1.0
 40
1.0
 40
1.0
 10
-0.386744094488189
 20
-1.027157480314961
 30
0.0
 10
-0.386744094488189
 20
-1.027157480314961
 30
0.0
 10
-0.386744094488189
 20
-1.068740157480315
 30
0.0
 10
-0.386744094488189
 20
-1.068740157480315
 30
0.0
 10
-0.386744094488189
 20
-1.068740157480315
 30
0.0
 10
-0.386744094488189
 20
-1.068740157480315
 30
0.0
 10
-0.365996062992126
 20
-1.068740157480315
 30
0.0
 10
-0.365996062992126
 20
-1.068740157480315
 30
0.0
 10
-0.365996062992126
 20
-1.068740157480315
 30
0.0
 10
-0.3563031496062992
 20
-1.068740157480315
 30
0.0
 10
-0.3496338582677165
 20
-1.068295275590551
 30
0.0
 10
-0.3460787401574803
 20
-1.06738188976378
 30
0.0
 10
-0.3460787401574803
 20
-1.06738188976378
 30
0.0
 10
-0.3404685039370079
 20
-1.065909448818898
 30
0.0
 10
-0.3362204724409449
 20
-1.063409448818898
 30
0.0
 10
-0.333248031496063
 20
-1.05988188976378
 30
0.0
 10
-0.333248031496063
 20
-1.05988188976378
 30
0.0
 10
-0.3303031496062993
 20
-1.056354330708661
 30
0.0
 10
-0.3288031496062993
 20
-1.051822834645669
 30
0.0
 10
-0.3288031496062993
 20
-1.046295275590551
 30
0.0
 10
-0.3288031496062993
 20
-1.046295275590551
 30
0.0
 10
-0.3288031496062993
 20
-1.041629921259843
 30
0.0
 10
-0.3301614173228347
 20
-1.037740157480315
 30
0.0
 10
-0.3328307086614173
 20
-1.034602362204725
 30
0.0
 10
-0.3328307086614173
 20
-1.034602362204725
 30
0.0
 10
-0.3355236220472441
 20
-1.031492125984252
 30
0.0
 10
-0.3391338582677165
 20
-1.029354330708661
 30
0.0
 10
-0.3436338582677165
 20
-1.028212598425197
 30
0.0
 10
-0.3436338582677165
 20
-1.028212598425197
 30
0.0
 10
-0.3465511811023622
 20
-1.02751968503937
 30
0.0
 10
-0.3526338582677165
 20
-1.027157480314961
 30
0.0
 10
-0.3618582677165355
 20
-1.027157480314961
 30
0.0
 10
-0.3618582677165355
 20
-1.027157480314961
 30
0.0
 10
-0.3618582677165355
 20
-1.027157480314961
 30
0.0
 10
-0.386744094488189
 20
-1.027157480314961
 30
0.0
 10
-0.386744094488189
 20
-1.027157480314961
 30
0.0
  0
SPLINE
  5
2F
330
1F
100
AcDbEntity
  8
LAYER_1
 62
   250
100
AcDbSpline
210
0.0
220
0.0
230
1.0
 70
    11
 71
     3
 72
    52
 73
    48
 74
     0
 42
0.0000000001
 43
0.0000000001
 40
0.0
 40
0.0
 40
0.0
 40
0.0
 40
0.0833333333333333
 40
0.0833333333333333
 40
0.0833333333333333
 40
0.0833333333333333
 40
0.1666666666666667
 40
0.1666666666666667
 40
0.1666666666666667
 40
0.1666666666666667
 40
0.25
 40
0.25
 40
0.25
 40
0.25
 40
0.3333333333333333
 40
0.3333333333333333
 40
0.3333333333333333
 40
0.3333333333333333
 40
0.4166666666666666
 40
0.4166666666666666
 40
0.4166666666666666
 40
0.4166666666666666
 40
0.4999999999999999
 40
0.4999999999999999
 40
0.4999999999999999
 40
0.4999999999999999
 40
0.5833333333333333
 40
0.5833333333333333
 40
0.5833333333333333
 40
0.5833333333333333
 40
0.6666666666666666
 40
0.6666666666666666
 40
0.6666666666666666
 40
0.6666666666666666
 40
0.75
 40
0.75
 40
0.75
 40
0.75
 40
0.8333333333333334
 40
0.8333333333333334
 40
0.8333333333333334
 40
0.8333333333333334
 40
0.9166666666666667
 40
0.9166666666666667
 40
0.9166666666666667
 40
0.9166666666666667
 40
1.0
 40
1.0
 40
1.0
 40
1.0
 10
-0.386744094488189
 20
-1.076574803149606
 30
0.0
 10
-0.386744094488189
 20
-1.076574803149606
 30
0.0
 10
-0.386744094488189
 20
-1.113822834645669
 30
0.0
 10
-0.386744094488189
 20
-1.113822834645669
 30
0.0
 10
-0.386744094488189
 20
-1.113822834645669
 30
0.0
 10
-0.386744094488189
 20
-1.117574803149606
 30
0.0
 10
-0.3865787401574803
 20
-1.119795275590551
 30
0.0
 10
-0.3862755905511811
 20
-1.12051968503937
 30
0.0
 10
-0.3862755905511811
 20
-1.12051968503937
 30
0.0
 10
-0.3858307086614173
 20
-1.121492125984252
 30
0.0
 10
-0.3849685039370079
 20
-1.122157480314961
 30
0.0
 10
-0.3836614173228347
 20
-1.122547244094488
 30
0.0
 10
-0.3836614173228347
 20
-1.122547244094488
 30
0.0
 10
-0.382744094488189
 20
-1.122822834645669
 30
0.0
 10
-0.3801338582677166
 20
-1.122964566929134
 30
0.0
 10
-0.3758582677165355
 20
-1.122964566929134
 30
0.0
 10
-0.3758582677165355
 20
-1.122964566929134
 30
0.0
 10
-0.3758582677165355
 20
-1.122964566929134
 30
0.0
 10
-0.3647755905511811
 20
-1.122964566929134
 30
0.0
 10
-0.3647755905511811
 20
-1.122964566929134
 30
0.0
 10
-0.3647755905511811
 20
-1.122964566929134
 30
0.0
 10
-0.3538307086614174
 20
-1.122964566929134
 30
0.0
 10
-0.345996062992126
 20
-1.122350393700788
 30
0.0
 10
-0.3413031496062992
 20
-1.121129921259843
 30
0.0
 10
-0.3413031496062992
 20
-1.121129921259843
 30
0.0
 10
-0.3366062992125984
 20
-1.119909448818898
 30
0.0
 10
-0.3326062992125984
 20
-1.117322834645669
 30
0.0
 10
-0.3293031496062993
 20
-1.113377952755906
 30
0.0
 10
-0.3293031496062993
 20
-1.113377952755906
 30
0.0
 10
-0.325996062992126
 20
-1.109464566929134
 30
0.0
 10
-0.3243307086614173
 20
-1.104712598425197
 30
0.0
 10
-0.3243307086614173
 20
-1.099185039370079
 30
0.0
 10
-0.3243307086614173
 20
-1.099185039370079
 30
0.0
 10
-0.3243307086614173
 20
-1.09451968503937
 30
0.0
 10
-0.3256889763779527
 20
-1.09038188976378
 30
0.0
 10
-0.3283582677165354
 20
-1.086767716535433
 30
0.0
 10
-0.3283582677165354
 20
-1.086767716535433
 30
0.0
 10
-0.3310511811023622
 20
-1.083157480314961
 30
0.0
 10
-0.3347755905511811
 20
-1.080574803149606
 30
0.0
 10
-0.3395236220472441
 20
-1.078964566929134
 30
0.0
 10
-0.3395236220472441
 20
-1.078964566929134
 30
0.0
 10
-0.3442755905511811
 20
-1.077350393700787
 30
0.0
 10
-0.3526889763779528
 20
-1.076574803149606
 30
0.0
 10
-0.3647755905511811
 20
-1.076574803149606
 30
0.0
 10
-0.3647755905511811
 20
-1.076574803149606
 30
0.0
 10
-0.3647755905511811
 20
-1.076574803149606
 30
0.0
 10
-0.386744094488189
 20
-1.076574803149606
 30
0.0
 10
-0.386744094488189
 20
-1.076574803149606
 30
0.0
  0
SPLINE
  5
30
330
1F
100
AcDbEntity
  8
LAYER_1
 62
   250
100
AcDbSpline
210
0.0
220
0.0
230
1.0
 70
    11
 71
     3
 72
   112
 73
   108
 74
     0
 42
0.0000000001
 43
0.0000000001
 40
0.0
 40
0.0
 40
0.0
 40
0.0
 40
0.037037037037037
 40
0.037037037037037
 40
0.037037037037037
 40
0.037037037037037
 40
0.0740740740740741
 40
0.0740740740740741
 40
0.0740740740740741
 40
0.0740740740740741
 40
0.1111111111111111
 40
0.1111111111111111
 40
0.1111111111111111
 40
0.1111111111111111
 40
0.1481481481481481
 40
0.1481481481481481
 40
0.1481481481481481
 40
0.1481481481481481
 40
0.1851851851851852
 40
0.1851851851851852
 40
0.1851851851851852
 40
0.1851851851851852
 40
0.2222222222222222
 40
0.2222222222222222
 40
0.2222222222222222
 40
0.2222222222222222
 40
0.2592592592592592
 40
0.2592592592592592
 40
0.2592592592592592
 40
0.2592592592592592
 40
0.2962962962962963
 40
0.2962962962962963
 40
0.2962962962962963
 40
0.2962962962962963
 40
0.3333333333333333
 40
0.3333333333333333
 40
0.3333333333333333
 40
0.3333333333333333
 40
0.3703703703703704
 40
0.3703703703703704
 40
0.3703703703703704
 40
0.3703703703703704
 40
0.4074074074074074
 40
0.4074074074074074
 40
0.4074074074074074
 40
0.4074074074074074
 40
0.4444444444444444
 40
0.4444444444444444
 40
0.4444444444444444
 40
0.4444444444444444
 40
0.4814814814814815
 40
0.4814814814814815
 40
0.4814814814814815
 40
0.4814814814814815
 40
0.5185185185185185
 40
0.5185185185185185
 40
0.5185185185185185
 40
0.5185185185185185
 40
0.5555555555555556
 40
0.5555555555555556
 40
0.5555555555555556
 40
0.5555555555555556
 40
0.5925925925925926
 40
0.5925925925925926
 40
0.5925925925925926
 40
0.5925925925925926
 40
0.6296296296296295
 40
0.6296296296296295
 40
0.6296296296296295
 40
0.6296296296296295
 40
0.6666666666666665
 40
0.6666666666666665
 40
0.6666666666666665
 40
0.6666666666666665
 40
0.7037037037037035
 40
0.7037037037037035
 40
0.7037037037037035
 40
0.7037037037037035
 40
0.7407407407407405
 40
0.7407407407407405
 40
0.7407407407407405
 40
0.7407407407407405
 40
0.7777777777777775
 40
0.7777777777777775
 40
0.7777777777777775
 40
0.7777777777777775
 40
0.8148148148148144
 40
0.8148148148148144
 40
0.8148148148148144
 40
0.8148148148148144
 40
0.8518518518518514
 40
0.8518518518518514
 40
0.8518518518518514
 40
0.8518518518518514
 40
0.8888888888888884
 40
0.8888888888888884
 40
0.8888888888888884
 40
0.8888888888888884
 40
0.9259259259259254
 40
0.9259259259259254
 40
0.9259259259259254
 40
0.9259259259259254
 40
0.9629629629629624
 40
0.9629629629629624
 40
0.9629629629629624
 40
0.9629629629629624
 40
1.0
 40
1.0
 40
1.0
 40
1.0
 10
-0.2496377952755906
 20
-1.018129921259843
 30
0.0
 10
-0.2496377952755906
 20
-1.018129921259843
 30
0.0
 10
-0.2362204724409449
 20
-1.018129921259843
 30
0.0
 10
-0.2362204724409449
 20
-1.018129921259843
 30
0.0
 10
-0.2362204724409449
 20
-1.018129921259843
 30
0.0
 10
-0.2362204724409449
 20
-1.018129921259843
 30
0.0
 10
-0.2009724409448819
 20
-1.11301968503937
 30
0.0
 10
-0.2009724409448819
 20
-1.11301968503937
 30
0.0
 10
-0.2009724409448819
 20
-1.11301968503937
 30
0.0
 10
-0.199248031496063
 20
-1.117795275590551
 30
0.0
 10
-0.1975
 20
-1.120964566929134
 30
0.0
 10
-0.1957204724409449
 20
-1.122492125984252
 30
0.0
 10
-0.1957204724409449
 20
-1.122492125984252
 30
0.0
 10
-0.1939724409448819
 20
-1.124047244094488
 30
0.0
 10
-0.1915826771653544
 20
-1.124822834645669
 30
0.0
 10
-0.1886102362204725
 20
-1.124822834645669
 30
0.0
 10
-0.1886102362204725
 20
-1.124822834645669
 30
0.0
 10
-0.1886102362204725
 20
-1.124822834645669
 30
0.0
 10
-0.1868307086614173
 20
-1.124822834645669
 30
0.0
 10
-0.1868307086614173
 20
-1.124822834645669
 30
0.0
 10
-0.1868307086614173
 20
-1.124822834645669
 30
0.0
 10
-0.1868307086614173
 20
-1.124822834645669
 30
0.0
 10
-0.1868307086614173
 20
-1.131657480314961
 30
0.0
 10
-0.1868307086614173
 20
-1.131657480314961
 30
0.0
 10
-0.1868307086614173
 20
-1.131657480314961
 30
0.0
 10
-0.1868307086614173
 20
-1.131657480314961
 30
0.0
 10
-0.2272755905511811
 20
-1.131657480314961
 30
0.0
 10
-0.2272755905511811
 20
-1.131657480314961
 30
0.0
 10
-0.2272755905511811
 20
-1.131657480314961
 30
0.0
 10
-0.2272755905511811
 20
-1.131657480314961
 30
0.0
 10
-0.2272755905511811
 20
-1.124822834645669
 30
0.0
 10
-0.2272755905511811
 20
-1.124822834645669
 30
0.0
 10
-0.2272755905511811
 20
-1.124822834645669
 30
0.0
 10
-0.2259724409448819
 20
-1.124712598425197
 30
0.0
 10
-0.2246929133858268
 20
-1.124657480314961
 30
0.0
 10
-0.2234409448818898
 20
-1.124657480314961
 30
0.0
 10
-0.2234409448818898
 20
-1.124657480314961
 30
0.0
 10
-0.2208307086614173
 20
-1.124657480314961
 30
0.0
 10
-0.2191377952755906
 20
-1.124377952755906
 30
0.0
 10
-0.2183031496062992
 20
-1.123850393700788
 30
0.0
 10
-0.2183031496062992
 20
-1.123850393700788
 30
0.0
 10
-0.216748031496063
 20
-1.122822834645669
 30
0.0
 10
-0.2159448818897638
 20
-1.12151968503937
 30
0.0
 10
-0.2159448818897638
 20
-1.119937007874016
 30
0.0
 10
-0.2159448818897638
 20
-1.119937007874016
 30
0.0
 10
-0.2159448818897638
 20
-1.118795275590551
 30
0.0
 10
-0.2167204724409449
 20
-1.11601968503937
 30
0.0
 10
-0.2182204724409449
 20
-1.111547244094488
 30
0.0
 10
-0.2182204724409449
 20
-1.111547244094488
 30
0.0
 10
-0.2182204724409449
 20
-1.111547244094488
 30
0.0
 10
-0.2257204724409449
 20
-1.089574803149606
 30
0.0
 10
-0.2257204724409449
 20
-1.089574803149606
 30
0.0
 10
-0.2257204724409449
 20
-1.089574803149606
 30
0.0
 10
-0.2257204724409449
 20
-1.089574803149606
 30
0.0
 10
-0.2668858267716536
 20
-1.089574803149606
 30
0.0
 10
-0.2668858267716536
 20
-1.089574803149606
 30
0.0
 10
-0.2668858267716536
 20
-1.089574803149606
 30
0.0
 10
-0.2668858267716536
 20
-1.089574803149606
 30
0.0
 10
-0.2756929133858268
 20
-1.114157480314961
 30
0.0
 10
-0.2756929133858268
 20
-1.114157480314961
 30
0.0
 10
-0.2756929133858268
 20
-1.114157480314961
 30
0.0
 10
-0.2766102362204724
 20
-1.116712598425197
 30
0.0
 10
-0.2770826771653543
 20
-1.118464566929134
 30
0.0
 10
-0.2770826771653543
 20
-1.119464566929134
 30
0.0
 10
-0.2770826771653543
 20
-1.119464566929134
 30
0.0
 10
-0.2770826771653543
 20
-1.120547244094488
 30
0.0
 10
-0.2767755905511811
 20
-1.121492125984252
 30
0.0
 10
-0.2762204724409449
 20
-1.122295275590551
 30
0.0
 10
-0.2762204724409449
 20
-1.122295275590551
 30
0.0
 10
-0.2756377952755906
 20
-1.123102362204725
 30
0.0
 10
-0.2748858267716536
 20
-1.123712598425197
 30
0.0
 10
-0.2738858267716536
 20
-1.124129921259843
 30
0.0
 10
-0.2738858267716536
 20
-1.124129921259843
 30
0.0
 10
-0.2729133858267717
 20
-1.124547244094488
 30
0.0
 10
-0.2713582677165354
 20
-1.124740157480315
 30
0.0
 10
-0.2691653543307087
 20
-1.124740157480315
 30
0.0
 10
-0.2691653543307087
 20
-1.124740157480315
 30
0.0
 10
-0.2677204724409449
 20
-1.124740157480315
 30
0.0
 10
-0.2665275590551181
 20
-1.124767716535433
 30
0.0
 10
-0.2656102362204725
 20
-1.124822834645669
 30
0.0
 10
-0.2656102362204725
 20
-1.124822834645669
 30
0.0
 10
-0.2656102362204725
 20
-1.124822834645669
 30
0.0
 10
-0.2656102362204725
 20
-1.131657480314961
 30
0.0
 10
-0.2656102362204725
 20
-1.131657480314961
 30
0.0
 10
-0.2656102362204725
 20
-1.131657480314961
 30
0.0
 10
-0.2656102362204725
 20
-1.131657480314961
 30
0.0
 10
-0.2995275590551181
 20
-1.131657480314961
 30
0.0
 10
-0.2995275590551181
 20
-1.131657480314961
 30
0.0
 10
-0.2995275590551181
 20
-1.131657480314961
 30
0.0
 10
-0.2995275590551181
 20
-1.131657480314961
 30
0.0
 10
-0.2995275590551181
 20
-1.124822834645669
 30
0.0
 10
-0.2995275590551181
 20
-1.124822834645669
 30
0.0
 10
-0.2995275590551181
 20
-1.124822834645669
 30
0.0
 10
-0.2963858267716535
 20
-1.124822834645669
 30
0.0
 10
-0.2941102362204724
 20
-1.12451968503937
 30
0.0
 10
-0.292748031496063
 20
-1.123877952755906
 30
0.0
 10
-0.292748031496063
 20
-1.123877952755906
 30
0.0
 10
-0.2913582677165355
 20
-1.123267716535433
 30
0.0
 10
-0.2901377952755906
 20
-1.122267716535433
 30
0.0
 10
-0.2891102362204724
 20
-1.120877952755906
 30
0.0
 10
-0.2891102362204724
 20
-1.120877952755906
 30
0.0
 10
-0.2880826771653544
 20
-1.119492125984252
 30
0.0
 10
-0.2867204724409449
 20
-1.116574803149606
 30
0.0
 10
-0.2850551181102362
 20
-1.112129921259843
 30
0.0
 10
-0.2850551181102362
 20
-1.112129921259843
 30
0.0
 10
-0.2850551181102362
 20
-1.112129921259843
 30
0.0
 10
-0.2496377952755906
 20
-1.018129921259843
 30
0.0
 10
-0.2496377952755906
 20
-1.018129921259843
 30
0.0
  0
SPLINE
  5
31
330
1F
100
AcDbEntity
  8
LAYER_1
 62
   250
100
AcDbSpline
210
0.0
220
0.0
230
1.0
 70
    11
 71
     3
 72
    16
 73
    12
 74
     0
 42
0.0000000001
 43
0.0000000001
 40
0.0
 40
0.0
 40
0.0
 40
0.0
 40
0.3333333333333333
 40
0.3333333333333333
 40
0.3333333333333333
 40
0.3333333333333333
 40
0.6666666666666666
 40
0.6666666666666666
 40
0.6666666666666666
 40
0.6666666666666666
 40
1.0
 40
1.0
 40
1.0
 40
1.0
 10
-0.2638858267716536
 20
-1.081602362204724
 30
0.0
 10
-0.2638858267716536
 20
-1.081602362204724
 30
0.0
 10
-0.2288031496062992
 20
-1.081602362204724
 30
0.0
 10
-0.2288031496062992
 20
-1.081602362204724
 30
0.0
 10
-0.2288031496062992
 20
-1.081602362204724
 30
0.0
 10
-0.2288031496062992
 20
-1.081602362204724
 30
0.0
 10
-0.2463858267716536
 20
-1.032767716535433
 30
0.0
 10
-0.2463858267716536
 20
-1.032767716535433
 30
0.0
 10
-0.2463858267716536
 20
-1.032767716535433
 30
0.0
 10
-0.2463858267716536
 20
-1.032767716535433
 30
0.0
 10
-0.2638858267716536
 20
-1.081602362204724
 30
0.0
 10
-0.2638858267716536
 20
-1.081602362204724
 30
0.0
  0
SPLINE
  5
32
330
1F
100
AcDbEntity
  8
LAYER_1
 62
   250
100
AcDbSpline
210
0.0
220
0.0
230
1.0
 70
    11
 71
     3
 72
    72
 73
    68
 74
     0
 42
0.0000000001
 43
0.0000000001
 40
0.0
 40
0.0
 40
0.0
 40
0.0
 40
0.0588235294117647
 40
0.0588235294117647
 40
0.0588235294117647
 40
0.0588235294117647
 40
0.1176470588235294
 40
0.1176470588235294
 40
0.1176470588235294
 40
0.1176470588235294
 40
0.1764705882352941
 40
0.1764705882352941
 40
0.1764705882352941
 40
0.1764705882352941
 40
0.2352941176470588
 40
0.2352941176470588
 40
0.2352941176470588
 40
0.2352941176470588
 40
0.2941176470588235
 40
0.2941176470588235
 40
0.2941176470588235
 40
0.2941176470588235
 40
0.3529411764705883
 40
0.3529411764705883
 40
0.3529411764705883
 40
0.3529411764705883
 40
0.411764705882353
 40
0.411764705882353
 40
0.411764705882353
 40
0.411764705882353
 40
0.4705882352941177
 40
0.4705882352941177
 40
0.4705882352941177
 40
0.4705882352941177
 40
0.5294117647058824
 40
0.5294117647058824
 40
0.5294117647058824
 40
0.5294117647058824
 40
0.5882352941176471
 40
0.5882352941176471
 40
0.5882352941176471
 40
0.5882352941176471
 40
0.6470588235294118
 40
0.6470588235294118
 40
0.6470588235294118
 40
0.6470588235294118
 40
0.7058823529411765
 40
0.7058823529411765
 40
0.7058823529411765
 40
0.7058823529411765
 40
0.7647058823529412
 40
0.7647058823529412
 40
0.7647058823529412
 40
0.7647058823529412
 40
0.823529411764706
 40
0.823529411764706
 40
0.823529411764706
 40
0.823529411764706
 40
0.8823529411764707
 40
0.8823529411764707
 40
0.8823529411764707
 40
0.8823529411764707
 40
0.9411764705882354
 40
0.9411764705882354
 40
0.9411764705882354
 40
0.9411764705882354
 40
1.0
 40
1.0
 40
1.0
 40
1.0
 10
-0.0238031496062992
 20
-1.018129921259843
 30
0.0
 10
-0.0238031496062992
 20
-1.018129921259843
 30
0.0
 10
-0.0177204724409449
 20
-1.018129921259843
 30
0.0
 10
-0.0177204724409449
 20
-1.018129921259843
 30
0.0
 10
-0.0177204724409449
 20
-1.018129921259843
 30
0.0
 10
-0.0177204724409449
 20
-1.018129921259843
 30
0.0
 10
-0.0177204724409449
 20
-1.112377952755906
 30
0.0
 10
-0.0177204724409449
 20
-1.112377952755906
 30
0.0
 10
-0.0177204724409449
 20
-1.112377952755906
 30
0.0
 10
-0.0177204724409449
 20
-1.116822834645669
 30
0.0
 10
-0.0174133858267717
 20
-1.119685039370079
 30
0.0
 10
-0.0168582677165354
 20
-1.120964566929134
 30
0.0
 10
-0.0168582677165354
 20
-1.120964566929134
 30
0.0
 10
-0.0162755905511811
 20
-1.122240157480315
 30
0.0
 10
-0.0153582677165354
 20
-1.123185039370079
 30
0.0
 10
-0.0140551181102362
 20
-1.123850393700788
 30
0.0
 10
-0.0140551181102362
 20
-1.123850393700788
 30
0.0
 10
-0.012748031496063
 20
-1.124492125984252
 30
0.0
 10
-0.0101653543307087
 20
-1.124822834645669
 30
0.0
 10
-0.0063031496062992
 20
-1.124822834645669
 30
0.0
 10
-0.0063031496062992
 20
-1.124822834645669
 30
0.0
 10
-0.0063031496062992
 20
-1.124822834645669
 30
0.0
 10
0.0016692913385827
 20
-1.124822834645669
 30
0.0
 10
0.0016692913385827
 20
-1.124822834645669
 30
0.0
 10
0.0016692913385827
 20
-1.124822834645669
 30
0.0
 10
0.0016692913385827
 20
-1.124822834645669
 30
0.0
 10
0.0016692913385827
 20
-1.131657480314961
 30
0.0
 10
0.0016692913385827
 20
-1.131657480314961
 30
0.0
 10
0.0016692913385827
 20
-1.131657480314961
 30
0.0
 10
0.0016692913385827
 20
-1.131657480314961
 30
0.0
 10
-0.0519685039370079
 20
-1.131657480314961
 30
0.0
 10
-0.0519685039370079
 20
-1.131657480314961
 30
0.0
 10
-0.0519685039370079
 20
-1.131657480314961
 30
0.0
 10
-0.0519685039370079
 20
-1.131657480314961
 30
0.0
 10
-0.0519685039370079
 20
-1.124822834645669
 30
0.0
 10
-0.0519685039370079
 20
-1.124822834645669
 30
0.0
 10
-0.0519685039370079
 20
-1.124822834645669
 30
0.0
 10
-0.0519685039370079
 20
-1.124822834645669
 30
0.0
 10
-0.0431102362204724
 20
-1.124822834645669
 30
0.0
 10
-0.0431102362204724
 20
-1.124822834645669
 30
0.0
 10
-0.0431102362204724
 20
-1.124822834645669
 30
0.0
 10
-0.039248031496063
 20
-1.124822834645669
 30
0.0
 10
-0.0366929133858268
 20
-1.124492125984252
 30
0.0
 10
-0.0354133858267717
 20
-1.123795275590551
 30
0.0
 10
-0.0354133858267717
 20
-1.123795275590551
 30
0.0
 10
-0.0341377952755906
 20
-1.123129921259843
 30
0.0
 10
-0.0331377952755906
 20
-1.122047244094488
 30
0.0
 10
-0.0324409448818898
 20
-1.120547244094488
 30
0.0
 10
-0.0324409448818898
 20
-1.120547244094488
 30
0.0
 10
-0.031748031496063
 20
-1.119047244094488
 30
0.0
 10
-0.0313858267716535
 20
-1.116322834645669
 30
0.0
 10
-0.0313858267716535
 20
-1.112377952755906
 30
0.0
 10
-0.0313858267716535
 20
-1.112377952755906
 30
0.0
 10
-0.0313858267716535
 20
-1.112377952755906
 30
0.0
 10
-0.0313858267716535
 20
-1.034909448818898
 30
0.0
 10
-0.0313858267716535
 20
-1.034909448818898
 30
0.0
 10
-0.0313858267716535
 20
-1.034909448818898
 30
0.0
 10
-0.0313858267716535
 20
-1.034909448818898
 30
0.0
 10
-0.0519685039370079
 20
-1.034909448818898
 30
0.0
 10
-0.0519685039370079
 20
-1.034909448818898
 30
0.0
 10
-0.0519685039370079
 20
-1.034909448818898
 30
0.0
 10
-0.0519685039370079
 20
-1.034909448818898
 30
0.0
 10
-0.0519685039370079
 20
-1.027909448818898
 30
0.0
 10
-0.0519685039370079
 20
-1.027909448818898
 30
0.0
 10
-0.0519685039370079
 20
-1.027909448818898
 30
0.0
 10
-0.040748031496063
 20
-1.026326771653543
 30
0.0
 10
-0.0313582677165354
 20
-1.023074803149606
 30
0.0
 10
-0.0238031496062992
 20
-1.018129921259843
 30
0.0
  0
SPLINE
  5
33
330
1F
100
AcDbEntity
  8
LAYER_1
 62
   250
100
AcDbSpline
210
0.0
220
0.0
230
1.0
 70
    11
 71
     3
 72
    80
 73
    76
 74
     0
 42
0.0000000001
 43
0.0000000001
 40
0.0
 40
0.0
 40
0.0
 40
0.0
 40
0.0526315789473684
 40
0.0526315789473684
 40
0.0526315789473684
 40
0.0526315789473684
 40
0.1052631578947368
 40
0.1052631578947368
 40
0.1052631578947368
 40
0.1052631578947368
 40
0.1578947368421053
 40
0.1578947368421053
 40
0.1578947368421053
 40
0.1578947368421053
 40
0.2105263157894737
 40
0.2105263157894737
 40
0.2105263157894737
 40
0.2105263157894737
 40
0.2631578947368421
 40
0.2631578947368421
 40
0.2631578947368421
 40
0.2631578947368421
 40
0.3157894736842105
 40
0.3157894736842105
 40
0.3157894736842105
 40
0.3157894736842105
 40
0.3684210526315789
 40
0.3684210526315789
 40
0.3684210526315789
 40
0.3684210526315789
 40
0.4210526315789474
 40
0.4210526315789474
 40
0.4210526315789474
 40
0.4210526315789474
 40
0.4736842105263158
 40
0.4736842105263158
 40
0.4736842105263158
 40
0.4736842105263158
 40
0.5263157894736842
 40
0.5263157894736842
 40
0.5263157894736842
 40
0.5263157894736842
 40
0.5789473684210527
 40
0.5789473684210527
 40
0.5789473684210527
 40
0.5789473684210527
 40
0.631578947368421
 40
0.631578947368421
 40
0.631578947368421
 40
0.631578947368421
 40
0.6842105263157894
 40
0.6842105263157894
 40
0.6842105263157894
 40
0.6842105263157894
 40
0.7368421052631577
 40
0.7368421052631577
 40
0.7368421052631577
 40
0.7368421052631577
 40
0.7894736842105261
 40
0.7894736842105261
 40
0.7894736842105261
 40
0.7894736842105261
 40
0.8421052631578945
 40
0.8421052631578945
 40
0.8421052631578945
 40
0.8421052631578945
 40
0.8947368421052628
 40
0.8947368421052628
 40
0.8947368421052628
 40
0.8947368421052628
 40
0.9473684210526312
 40
0.9473684210526312
 40
0.9473684210526312
 40
0.9473684210526312
 40
1.0
 40
1.0
 40
1.0
 40
1.0
 10
0.0416141732283465
 20
-1.013992125984252
 30
0.0
 10
0.0416141732283465
 20
-1.013992125984252
 30
0.0
 10
0.047003937007874
 20
-1.013992125984252
 30
0.0
 10
0.047003937007874
 20
-1.013992125984252
 30
0.0
 10
0.047003937007874
 20
-1.013992125984252
 30
0.0
 10
0.047003937007874
 20
-1.013992125984252
 30
0.0
 10
0.0479763779527559
 20
-1.018129921259843
 30
0.0
 10
0.0479763779527559
 20
-1.018129921259843
 30
0.0
 10
0.0479763779527559
 20
-1.018129921259843
 30
0.0
 10
0.0479763779527559
 20
-1.018129921259843
 30
0.0
 10
0.1190866141732284
 20
-1.018129921259843
 30
0.0
 10
0.1190866141732284
 20
-1.018129921259843
 30
0.0
 10
0.1190866141732284
 20
-1.018129921259843
 30
0.0
 10
0.1190866141732284
 20
-1.018129921259843
 30
0.0
 10
0.1190866141732284
 20
-1.025047244094488
 30
0.0
 10
0.1190866141732284
 20
-1.025047244094488
 30
0.0
 10
0.1190866141732284
 20
-1.025047244094488
 30
0.0
 10
0.1105866141732284
 20
-1.03488188976378
 30
0.0
 10
0.1028622047244095
 20
-1.046047244094488
 30
0.0
 10
0.0959488188976378
 20
-1.058629921259843
 30
0.0
 10
0.0959488188976378
 20
-1.058629921259843
 30
0.0
 10
0.0890314960629921
 20
-1.071185039370079
 30
0.0
 10
0.0836692913385827
 20
-1.083964566929134
 30
0.0
 10
0.0798622047244095
 20
-1.096992125984252
 30
0.0
 10
0.0798622047244095
 20
-1.096992125984252
 30
0.0
 10
0.0771141732283465
 20
-1.106377952755905
 30
0.0
 10
0.0748661417322835
 20
-1.117937007874016
 30
0.0
 10
0.0731141732283465
 20
-1.131657480314961
 30
0.0
 10
0.0731141732283465
 20
-1.131657480314961
 30
0.0
 10
0.0731141732283465
 20
-1.131657480314961
 30
0.0
 10
0.0564488188976378
 20
-1.131657480314961
 30
0.0
 10
0.0564488188976378
 20
-1.131657480314961
 30
0.0
 10
0.0564488188976378
 20
-1.131657480314961
 30
0.0
 10
0.0580590551181102
 20
-1.119547244094488
 30
0.0
 10
0.0607244094488189
 20
-1.108240157480315
 30
0.0
 10
0.0644488188976378
 20
-1.097712598425197
 30
0.0
 10
0.0644488188976378
 20
-1.097712598425197
 30
0.0
 10
0.0681692913385827
 20
-1.087185039370079
 30
0.0
 10
0.0735314960629921
 20
-1.076185039370079
 30
0.0
 10
0.0805590551181102
 20
-1.064712598425197
 30
0.0
 10
0.0805590551181102
 20
-1.064712598425197
 30
0.0
 10
0.0875866141732284
 20
-1.053240157480315
 30
0.0
 10
0.0961141732283465
 20
-1.041795275590551
 30
0.0
 10
0.1061692913385827
 20
-1.030354330708662
 30
0.0
 10
0.1061692913385827
 20
-1.030354330708662
 30
0.0
 10
0.1061692913385827
 20
-1.030354330708662
 30
0.0
 10
0.0554488188976378
 20
-1.030354330708662
 30
0.0
 10
0.0554488188976378
 20
-1.030354330708662
 30
0.0
 10
0.0554488188976378
 20
-1.030354330708662
 30
0.0
 10
0.0517795275590551
 20
-1.030354330708662
 30
0.0
 10
0.049251968503937
 20
-1.03051968503937
 30
0.0
 10
0.0478937007874016
 20
-1.030909448818898
 30
0.0
 10
0.0478937007874016
 20
-1.030909448818898
 30
0.0
 10
0.0465314960629921
 20
-1.031295275590551
 30
0.0
 10
0.0454763779527559
 20
-1.03188188976378
 30
0.0
 10
0.0447244094488189
 20
-1.032685039370079
 30
0.0
 10
0.0447244094488189
 20
-1.032685039370079
 30
0.0
 10
0.0439488188976378
 20
-1.03351968503937
 30
0.0
 10
0.0433070866141732
 20
-1.034964566929134
 30
0.0
 10
0.042751968503937
 20
-1.03701968503937
 30
0.0
 10
0.042751968503937
 20
-1.03701968503937
 30
0.0
 10
0.042751968503937
 20
-1.03701968503937
 30
0.0
 10
0.0423661417322835
 20
-1.038547244094488
 30
0.0
 10
0.0423661417322835
 20
-1.038547244094488
 30
0.0
 10
0.0423661417322835
 20
-1.038547244094488
 30
0.0
 10
0.0423661417322835
 20
-1.038547244094488
 30
0.0
 10
0.0395866141732283
 20
-1.048157480314961
 30
0.0
 10
0.0395866141732283
 20
-1.048157480314961
 30
0.0
 10
0.0395866141732283
 20
-1.048157480314961
 30
0.0
 10
0.0395866141732283
 20
-1.048157480314961
 30
0.0
 10
0.0326692913385827
 20
-1.046685039370079
 30
0.0
 10
0.0326692913385827
 20
-1.046685039370079
 30
0.0
 10
0.0326692913385827
 20
-1.046685039370079
 30
0.0
 10
0.0326692913385827
 20
-1.046685039370079
 30
0.0
 10
0.0416141732283465
 20
-1.013992125984252
 30
0.0
 10
0.0416141732283465
 20
-1.013992125984252
 30
0.0
  0
SPLINE
  5
34
330
1F
100
AcDbEntity
  8
LAYER_1
 62
   250
100
AcDbSpline
210
0.0
220
0.0
230
1.0
 70
    11
 71
     3
 72
    76
 73
    72
 74
     0
 42
0.0000000001
 43
0.0000000001
 40
0.0
 40
0.0
 40
0.0
 40
0.0
 40
0.0555555555555556
 40
0.0555555555555556
 40
0.0555555555555556
 40
0.0555555555555556
 40
0.1111111111111111
 40
0.1111111111111111
 40
0.1111111111111111
 40
0.1111111111111111
 40
0.1666666666666667
 40
0.1666666666666667
 40
0.1666666666666667
 40
0.1666666666666667
 40
0.2222222222222222
 40
0.2222222222222222
 40
0.2222222222222222
 40
0.2222222222222222
 40
0.2777777777777778
 40
0.2777777777777778
 40
0.2777777777777778
 40
0.2777777777777778
 40
0.3333333333333334
 40
0.3333333333333334
 40
0.3333333333333334
 40
0.3333333333333334
 40
0.388888888888889
 40
0.388888888888889
 40
0.388888888888889
 40
0.388888888888889
 40
0.4444444444444445
 40
0.4444444444444445
 40
0.4444444444444445
 40
0.4444444444444445
 40
0.5000000000000001
 40
0.5000000000000001
 40
0.5000000000000001
 40
0.5000000000000001
 40
0.5555555555555557
 40
0.5555555555555557
 40
0.5555555555555557
 40
0.5555555555555557
 40
0.6111111111111113
 40
0.6111111111111113
 40
0.6111111111111113
 40
0.6111111111111113
 40
0.6666666666666669
 40
0.6666666666666669
 40
0.6666666666666669
 40
0.6666666666666669
 40
0.7222222222222224
 40
0.7222222222222224
 40
0.7222222222222224
 40
0.7222222222222224
 40
0.777777777777778
 40
0.777777777777778
 40
0.777777777777778
 40
0.777777777777778
 40
0.8333333333333336
 40
0.8333333333333336
 40
0.8333333333333336
 40
0.8333333333333336
 40
0.8888888888888892
 40
0.8888888888888892
 40
0.8888888888888892
 40
0.8888888888888892
 40
0.9444444444444448
 40
0.9444444444444448
 40
0.9444444444444448
 40
0.9444444444444448
 40
1.0
 40
1.0
 40
1.0
 40
1.0
 10
0.1913661417322835
 20
-1.068657480314961
 30
0.0
 10
0.1977834645669291
 20
-1.071102362204724
 30
0.0
 10
0.2026692913385827
 20
-1.073409448818898
 30
0.0
 10
0.2060314960629921
 20
-1.075574803149606
 30
0.0
 10
0.2060314960629921
 20
-1.075574803149606
 30
0.0
 10
0.2109488188976378
 20
-1.078740157480315
 30
0.0
 10
0.2146692913385827
 20
-1.082437007874016
 30
0.0
 10
0.2171692913385827
 20
-1.086685039370079
 30
0.0
 10
0.2171692913385827
 20
-1.086685039370079
 30
0.0
 10
0.2196692913385827
 20
-1.090964566929134
 30
0.0
 10
0.2209212598425197
 20
-1.095574803149606
 30
0.0
 10
0.2209212598425197
 20
-1.100574803149606
 30
0.0
 10
0.2209212598425197
 20
-1.100574803149606
 30
0.0
 10
0.2209212598425197
 20
-1.10951968503937
 30
0.0
 10
0.2170590551181102
 20
-1.117267716535433
 30
0.0
 10
0.2093661417322835
 20
-1.123795275590551
 30
0.0
 10
0.2093661417322835
 20
-1.123795275590551
 30
0.0
 10
0.2016417322834646
 20
-1.130350393700788
 30
0.0
 10
0.191255905511811
 20
-1.133602362204724
 30
0.0
 10
0.1781968503937008
 20
-1.133602362204724
 30
0.0
 10
0.1781968503937008
 20
-1.133602362204724
 30
0.0
 10
0.1643661417322835
 20
-1.133602362204724
 30
0.0
 10
0.153503937007874
 20
-1.129909448818898
 30
0.0
 10
0.1456417322834646
 20
-1.122547244094488
 30
0.0
 10
0.1456417322834646
 20
-1.122547244094488
 30
0.0
 10
0.1393937007874016
 20
-1.116629921259843
 30
0.0
 10
0.1362834645669291
 20
-1.109937007874016
 30
0.0
 10
0.1362834645669291
 20
-1.102437007874016
 30
0.0
 10
0.1362834645669291
 20
-1.102437007874016
 30
0.0
 10
0.1362834645669291
 20
-1.096409448818898
 30
0.0
 10
0.1383937007874016
 20
-1.09101968503937
 30
0.0
 10
0.1426141732283465
 20
-1.086240157480315
 30
0.0
 10
0.1426141732283465
 20
-1.086240157480315
 30
0.0
 10
0.1477283464566929
 20
-1.080547244094488
 30
0.0
 10
0.155003937007874
 20
-1.076102362204725
 30
0.0
 10
0.1644488188976378
 20
-1.072909448818898
 30
0.0
 10
0.1644488188976378
 20
-1.072909448818898
 30
0.0
 10
0.1570590551181103
 20
-1.069437007874016
 30
0.0
 10
0.151755905511811
 20
-1.065909448818898
 30
0.0
 10
0.1484763779527559
 20
-1.062322834645669
 30
0.0
 10
0.1484763779527559
 20
-1.062322834645669
 30
0.0
 10
0.1443110236220473
 20
-1.057602362204724
 30
0.0
 10
0.1422283464566929
 20
-1.051937007874016
 30
0.0
 10
0.1422283464566929
 20
-1.045326771653543
 30
0.0
 10
0.1422283464566929
 20
-1.045326771653543
 30
0.0
 10
0.1422283464566929
 20
-1.037129921259843
 30
0.0
 10
0.1453110236220473
 20
-1.030492125984252
 30
0.0
 10
0.151503937007874
 20
-1.025464566929134
 30
0.0
 10
0.151503937007874
 20
-1.025464566929134
 30
0.0
 10
0.1590866141732284
 20
-1.019267716535433
 30
0.0
 10
0.1685866141732283
 20
-1.016185039370079
 30
0.0
 10
0.1799763779527559
 20
-1.016185039370079
 30
0.0
 10
0.1799763779527559
 20
-1.016185039370079
 30
0.0
 10
0.1903937007874016
 20
-1.016185039370079
 30
0.0
 10
0.1988110236220473
 20
-1.018854330708662
 30
0.0
 10
0.205255905511811
 20
-1.024185039370079
 30
0.0
 10
0.205255905511811
 20
-1.024185039370079
 30
0.0
 10
0.2116692913385827
 20
-1.029547244094488
 30
0.0
 10
0.2148937007874016
 20
-1.035657480314961
 30
0.0
 10
0.2148937007874016
 20
-1.042547244094488
 30
0.0
 10
0.2148937007874016
 20
-1.042547244094488
 30
0.0
 10
0.2148937007874016
 20
-1.045964566929134
 30
0.0
 10
0.2140866141732284
 20
-1.049240157480315
 30
0.0
 10
0.212503937007874
 20
-1.052354330708661
 30
0.0
 10
0.212503937007874
 20
-1.052354330708661
 30
0.0
 10
0.2108937007874016
 20
-1.055464566929134
 30
0.0
 10
0.2084488188976378
 20
-1.05838188976378
 30
0.0
 10
0.2051141732283465
 20
-1.061047244094488
 30
0.0
 10
0.2051141732283465
 20
-1.061047244094488
 30
0.0
 10
0.2018110236220473
 20
-1.063740157480315
 30
0.0
 10
0.1972244094488189
 20
-1.066267716535433
 30
0.0
 10
0.1913661417322835
 20
-1.068657480314961
 30
0.0
  0
SPLINE
  5
35
330
1F
100
AcDbEntity
  8
LAYER_1
 62
   250
100
AcDbSpline
210
0.0
220
0.0
230
1.0
 70
    11
 71
     3
 72
    48
 73
    44
 74
     0
 42
0.0000000001
 43
0.0000000001
 40
0.0
 40
0.0
 40
0.0
 40
0.0
 40
0.0909090909090909
 40
0.0909090909090909
 40
0.0909090909090909
 40
0.0909090909090909
 40
0.1818181818181818
 40
0.1818181818181818
 40
0.1818181818181818
 40
0.1818181818181818
 40
0.2727272727272727
 40
0.2727272727272727
 40
0.2727272727272727
 40
0.2727272727272727
 40
0.3636363636363637
 40
0.3636363636363637
 40
0.3636363636363637
 40
0.3636363636363637
 40
0.4545454545454546
 40
0.4545454545454546
 40
0.4545454545454546
 40
0.4545454545454546
 40
0.5454545454545455
 40
0.5454545454545455
 40
0.5454545454545455
 40
0.5454545454545455
 40
0.6363636363636365
 40
0.6363636363636365
 40
0.6363636363636365
 40
0.6363636363636365
 40
0.7272727272727274
 40
0.7272727272727274
 40
0.7272727272727274
 40
0.7272727272727274
 40
0.8181818181818183
 40
0.8181818181818183
 40
0.8181818181818183
 40
0.8181818181818183
 40
0.9090909090909093
 40
0.9090909090909093
 40
0.9090909090909093
 40
0.9090909090909093
 40
1.0
 40
1.0
 40
1.0
 40
1.0
 10
0.1839763779527559
 20
-1.065657480314961
 30
0.0
 10
0.1901417322834646
 20
-1.060992125984252
 30
0.0
 10
0.1941692913385827
 20
-1.057740157480315
 30
0.0
 10
0.196003937007874
 20
-1.05588188976378
 30
0.0
 10
0.196003937007874
 20
-1.05588188976378
 30
0.0
 10
0.1978661417322835
 20
-1.054047244094488
 30
0.0
 10
0.1992834645669291
 20
-1.051937007874016
 30
0.0
 10
0.2002834645669291
 20
-1.049574803149606
 30
0.0
 10
0.2002834645669291
 20
-1.049574803149606
 30
0.0
 10
0.2012834645669291
 20
-1.047212598425197
 30
0.0
 10
0.2017834645669291
 20
-1.044937007874016
 30
0.0
 10
0.2017834645669291
 20
-1.042712598425197
 30
0.0
 10
0.2017834645669291
 20
-1.042712598425197
 30
0.0
 10
0.2017834645669291
 20
-1.03951968503937
 30
0.0
 10
0.2008385826771654
 20
-1.036464566929134
 30
0.0
 10
0.1989488188976378
 20
-1.033547244094488
 30
0.0
 10
0.1989488188976378
 20
-1.033547244094488
 30
0.0
 10
0.1970314960629921
 20
-1.030657480314961
 30
0.0
 10
0.194255905511811
 20
-1.028295275590551
 30
0.0
 10
0.1905866141732284
 20
-1.02651968503937
 30
0.0
 10
0.1905866141732284
 20
-1.02651968503937
 30
0.0
 10
0.1869488188976378
 20
-1.024712598425197
 30
0.0
 10
0.1828385826771654
 20
-1.023826771653543
 30
0.0
 10
0.1782834645669292
 20
-1.023826771653543
 30
0.0
 10
0.1782834645669292
 20
-1.023826771653543
 30
0.0
 10
0.1715314960629921
 20
-1.023826771653543
 30
0.0
 10
0.1659488188976378
 20
-1.025685039370079
 30
0.0
 10
0.161503937007874
 20
-1.029409448818898
 30
0.0
 10
0.161503937007874
 20
-1.029409448818898
 30
0.0
 10
0.1570590551181103
 20
-1.033129921259843
 30
0.0
 10
0.1548385826771654
 20
-1.037409448818898
 30
0.0
 10
0.1548385826771654
 20
-1.042295275590551
 30
0.0
 10
0.1548385826771654
 20
-1.042295275590551
 30
0.0
 10
0.1548385826771654
 20
-1.046212598425197
 30
0.0
 10
0.1562283464566929
 20
-1.049712598425197
 30
0.0
 10
0.1589763779527559
 20
-1.052795275590551
 30
0.0
 10
0.1589763779527559
 20
-1.052795275590551
 30
0.0
 10
0.161755905511811
 20
-1.05588188976378
 30
0.0
 10
0.1668937007874016
 20
-1.058937007874016
 30
0.0
 10
0.1744488188976378
 20
-1.061909448818898
 30
0.0
 10
0.1744488188976378
 20
-1.061909448818898
 30
0.0
 10
0.1744488188976378
 20
-1.061909448818898
 30
0.0
 10
0.1839763779527559
 20
-1.065657480314961
 30
0.0
 10
0.1839763779527559
 20
-1.065657480314961
 30
0.0
  0
SPLINE
  5
36
330
1F
100
AcDbEntity
  8
LAYER_1
 62
   250
100
AcDbSpline
210
0.0
220
0.0
230
1.0
 70
    11
 71
     3
 72
    40
 73
    36
 74
     0
 42
0.0000000001
 43
0.0000000001
 40
0.0
 40
0.0
 40
0.0
 40
0.0
 40
0.1111111111111111
 40
0.1111111111111111
 40
0.1111111111111111
 40
0.1111111111111111
 40
0.2222222222222222
 40
0.2222222222222222
 40
0.2222222222222222
 40
0.2222222222222222
 40
0.3333333333333333
 40
0.3333333333333333
 40
0.3333333333333333
 40
0.3333333333333333
 40
0.4444444444444444
 40
0.4444444444444444
 40
0.4444444444444444
 40
0.4444444444444444
 40
0.5555555555555556
 40
0.5555555555555556
 40
0.5555555555555556
 40
0.5555555555555556
 40
0.6666666666666667
 40
0.6666666666666667
 40
0.6666666666666667
 40
0.6666666666666667
 40
0.7777777777777779
 40
0.7777777777777779
 40
0.7777777777777779
 40
0.7777777777777779
 40
0.8888888888888891
 40
0.8888888888888891
 40
0.8888888888888891
 40
0.8888888888888891
 40
1.0
 40
1.0
 40
1.0
 40
1.0
 10
0.172503937007874
 20
-1.076074803149606
 30
0.0
 10
0.1648385826771654
 20
-1.079437007874016
 30
0.0
 10
0.1587834645669291
 20
-1.083795275590551
 30
0.0
 10
0.1543385826771654
 20
-1.089185039370079
 30
0.0
 10
0.1543385826771654
 20
-1.089185039370079
 30
0.0
 10
0.1508661417322835
 20
-1.093409448818898
 30
0.0
 10
0.1491417322834646
 20
-1.097795275590551
 30
0.0
 10
0.1491417322834646
 20
-1.102350393700788
 30
0.0
 10
0.1491417322834646
 20
-1.102350393700788
 30
0.0
 10
0.1491417322834646
 20
-1.108547244094488
 30
0.0
 10
0.1518661417322835
 20
-1.114047244094488
 30
0.0
 10
0.1573661417322835
 20
-1.118850393700787
 30
0.0
 10
0.1573661417322835
 20
-1.118850393700787
 30
0.0
 10
0.1628385826771654
 20
-1.123629921259843
 30
0.0
 10
0.1699212598425197
 20
-1.126047244094488
 30
0.0
 10
0.1785866141732284
 20
-1.126047244094488
 30
0.0
 10
0.1785866141732284
 20
-1.126047244094488
 30
0.0
 10
0.1874488188976378
 20
-1.126047244094488
 30
0.0
 10
0.1948110236220473
 20
-1.123295275590551
 30
0.0
 10
0.2007244094488189
 20
-1.117822834645669
 30
0.0
 10
0.2007244094488189
 20
-1.117822834645669
 30
0.0
 10
0.2055590551181102
 20
-1.113377952755906
 30
0.0
 10
0.2079763779527559
 20
-1.108602362204725
 30
0.0
 10
0.2079763779527559
 20
-1.103492125984252
 30
0.0
 10
0.2079763779527559
 20
-1.103492125984252
 30
0.0
 10
0.2079763779527559
 20
-1.099492125984252
 30
0.0
 10
0.2063937007874016
 20
-1.095657480314961
 30
0.0
 10
0.2032244094488189
 20
-1.091992125984252
 30
0.0
 10
0.2032244094488189
 20
-1.091992125984252
 30
0.0
 10
0.2000314960629921
 20
-1.088322834645669
 30
0.0
 10
0.1941417322834646
 20
-1.084767716535433
 30
0.0
 10
0.185503937007874
 20
-1.081295275590551
 30
0.0
 10
0.185503937007874
 20
-1.081295275590551
 30
0.0
 10
0.185503937007874
 20
-1.081295275590551
 30
0.0
 10
0.172503937007874
 20
-1.076074803149606
 30
0.0
 10
0.172503937007874
 20
-1.076074803149606
 30
0.0
  0
SPLINE
  5
37
330
1F
100
AcDbEntity
  8
LAYER_1
 62
   250
100
AcDbSpline
210
0.0
220
0.0
230
1.0
 70
    11
 71
     3
 72
    84
 73
    80
 74
     0
 42
0.0000000001
 43
0.0000000001
 40
0.0
 40
0.0
 40
0.0
 40
0.0
 40
0.05
 40
0.05
 40
0.05
 40
0.05
 40
0.1
 40
0.1
 40
0.1
 40
0.1
 40
0.15
 40
0.15
 40
0.15
 40
0.15
 40
0.2
 40
0.2
 40
0.2
 40
0.2
 40
0.25
 40
0.25
 40
0.25
 40
0.25
 40
0.3
 40
0.3
 40
0.3
 40
0.3
 40
0.35
 40
0.35
 40
0.35
 40
0.35
 40
0.4
 40
0.4
 40
0.4
 40
0.4
 40
0.45
 40
0.45
 40
0.45
 40
0.45
 40
0.4999999999999999
 40
0.4999999999999999
 40
0.4999999999999999
 40
0.4999999999999999
 40
0.5499999999999999
 40
0.5499999999999999
 40
0.5499999999999999
 40
0.5499999999999999
 40
0.6
 40
0.6
 40
0.6
 40
0.6
 40
0.65
 40
0.65
 40
0.65
 40
0.65
 40
0.7000000000000001
 40
0.7000000000000001
 40
0.7000000000000001
 40
0.7000000000000001
 40
0.7500000000000001
 40
0.7500000000000001
 40
0.7500000000000001
 40
0.7500000000000001
 40
0.8000000000000002
 40
0.8000000000000002
 40
0.8000000000000002
 40
0.8000000000000002
 40
0.8500000000000002
 40
0.8500000000000002
 40
0.8500000000000002
 40
0.8500000000000002
 40
0.9000000000000002
 40
0.9000000000000002
 40
0.9000000000000002
 40
0.9000000000000002
 40
0.9500000000000003
 40
0.9500000000000003
 40
0.9500000000000003
 40
0.9500000000000003
 40
1.0
 40
1.0
 40
1.0
 40
1.0
 10
0.2493937007874016
 20
-1.133602362204724
 30
0.0
 10
0.2493937007874016
 20
-1.133602362204724
 30
0.0
 10
0.2493937007874016
 20
-1.126047244094488
 30
0.0
 10
0.2493937007874016
 20
-1.126047244094488
 30
0.0
 10
0.2493937007874016
 20
-1.126047244094488
 30
0.0
 10
0.2628661417322835
 20
-1.125877952755906
 30
0.0
 10
0.2737283464566929
 20
-1.123937007874016
 30
0.0
 10
0.282003937007874
 20
-1.120212598425197
 30
0.0
 10
0.282003937007874
 20
-1.120212598425197
 30
0.0
 10
0.2902834645669292
 20
-1.11651968503937
 30
0.0
 10
0.2963385826771653
 20
-1.110909448818898
 30
0.0
 10
0.3002283464566929
 20
-1.103409448818898
 30
0.0
 10
0.3002283464566929
 20
-1.103409448818898
 30
0.0
 10
0.3041181102362205
 20
-1.095937007874016
 30
0.0
 10
0.3062834645669291
 20
-1.086767716535433
 30
0.0
 10
0.3067834645669291
 20
-1.075909448818898
 30
0.0
 10
0.3067834645669291
 20
-1.075909448818898
 30
0.0
 10
0.304003937007874
 20
-1.080129921259843
 30
0.0
 10
0.3011732283464567
 20
-1.083437007874016
 30
0.0
 10
0.2982834645669292
 20
-1.085767716535433
 30
0.0
 10
0.2982834645669292
 20
-1.085767716535433
 30
0.0
 10
0.2953661417322835
 20
-1.088102362204725
 30
0.0
 10
0.2919763779527559
 20
-1.089909448818898
 30
0.0
 10
0.2881181102362205
 20
-1.091212598425197
 30
0.0
 10
0.2881181102362205
 20
-1.091212598425197
 30
0.0
 10
0.2842283464566929
 20
-1.09251968503937
 30
0.0
 10
0.280003937007874
 20
-1.093157480314961
 30
0.0
 10
0.2754488188976378
 20
-1.093157480314961
 30
0.0
 10
0.2754488188976378
 20
-1.093157480314961
 30
0.0
 10
0.2680590551181102
 20
-1.093157480314961
 30
0.0
 10
0.261503937007874
 20
-1.091547244094488
 30
0.0
 10
0.2557283464566929
 20
-1.088267716535433
 30
0.0
 10
0.2557283464566929
 20
-1.088267716535433
 30
0.0
 10
0.2499488188976378
 20
-1.08501968503937
 30
0.0
 10
0.2454488188976378
 20
-1.080629921259843
 30
0.0
 10
0.242255905511811
 20
-1.075102362204724
 30
0.0
 10
0.242255905511811
 20
-1.075102362204724
 30
0.0
 10
0.2390314960629921
 20
-1.069574803149606
 30
0.0
 10
0.2374488188976378
 20
-1.063047244094488
 30
0.0
 10
0.2374488188976378
 20
-1.055574803149606
 30
0.0
 10
0.2374488188976378
 20
-1.055574803149606
 30
0.0
 10
0.2374488188976378
 20
-1.043629921259843
 30
0.0
 10
0.2410629921259843
 20
-1.034240157480315
 30
0.0
 10
0.248255905511811
 20
-1.027409448818898
 30
0.0
 10
0.248255905511811
 20
-1.027409448818898
 30
0.0
 10
0.256255905511811
 20
-1.019937007874016
 30
0.0
 10
0.2666181102362205
 20
-1.016185039370079
 30
0.0
 10
0.2793661417322835
 20
-1.016185039370079
 30
0.0
 10
0.2793661417322835
 20
-1.016185039370079
 30
0.0
 10
0.2885314960629921
 20
-1.016185039370079
 30
0.0
 10
0.296255905511811
 20
-1.018074803149606
 30
0.0
 10
0.3025590551181103
 20
-1.02188188976378
 30
0.0
 10
0.3025590551181103
 20
-1.02188188976378
 30
0.0
 10
0.3088385826771654
 20
-1.025685039370079
 30
0.0
 10
0.3138385826771654
 20
-1.031492125984252
 30
0.0
 10
0.3175314960629921
 20
-1.039295275590551
 30
0.0
 10
0.3175314960629921
 20
-1.039295275590551
 30
0.0
 10
0.3212007874015748
 20
-1.047102362204724
 30
0.0
 10
0.3230590551181102
 20
-1.056712598425197
 30
0.0
 10
0.3230590551181102
 20
-1.068102362204725
 30
0.0
 10
0.3230590551181102
 20
-1.068102362204725
 30
0.0
 10
0.3230590551181102
 20
-1.079492125984252
 30
0.0
 10
0.3211456692913386
 20
-1.089657480314961
 30
0.0
 10
0.3172834645669291
 20
-1.098629921259843
 30
0.0
 10
0.3172834645669291
 20
-1.098629921259843
 30
0.0
 10
0.3134212598425197
 20
-1.107574803149606
 30
0.0
 10
0.3080314960629921
 20
-1.114740157480315
 30
0.0
 10
0.3011181102362205
 20
-1.120129921259843
 30
0.0
 10
0.3011181102362205
 20
-1.120129921259843
 30
0.0
 10
0.2942007874015748
 20
-1.125547244094488
 30
0.0
 10
0.2865866141732283
 20
-1.129129921259843
 30
0.0
 10
0.2783110236220472
 20
-1.130937007874016
 30
0.0
 10
0.2783110236220472
 20
-1.130937007874016
 30
0.0
 10
0.270003937007874
 20
-1.132712598425197
 30
0.0
 10
0.2624763779527559
 20
-1.133602362204724
 30
0.0
 10
0.255755905511811
 20
-1.133602362204724
 30
0.0
 10
0.255755905511811
 20
-1.133602362204724
 30
0.0
 10
0.255755905511811
 20
-1.133602362204724
 30
0.0
 10
0.2493937007874016
 20
-1.133602362204724
 30
0.0
 10
0.2493937007874016
 20
-1.133602362204724
 30
0.0
  0
SPLINE
  5
38
330
1F
100
AcDbEntity
  8
LAYER_1
 62
   250
100
AcDbSpline
210
0.0
220
0.0
230
1.0
 70
    11
 71
     3
 72
    40
 73
    36
 74
     0
 42
0.0000000001
 43
0.0000000001
 40
0.0
 40
0.0
 40
0.0
 40
0.0
 40
0.1111111111111111
 40
0.1111111111111111
 40
0.1111111111111111
 40
0.1111111111111111
 40
0.2222222222222222
 40
0.2222222222222222
 40
0.2222222222222222
 40
0.2222222222222222
 40
0.3333333333333333
 40
0.3333333333333333
 40
0.3333333333333333
 40
0.3333333333333333
 40
0.4444444444444444
 40
0.4444444444444444
 40
0.4444444444444444
 40
0.4444444444444444
 40
0.5555555555555556
 40
0.5555555555555556
 40
0.5555555555555556
 40
0.5555555555555556
 40
0.6666666666666667
 40
0.6666666666666667
 40
0.6666666666666667
 40
0.6666666666666667
 40
0.7777777777777779
 40
0.7777777777777779
 40
0.7777777777777779
 40
0.7777777777777779
 40
0.8888888888888891
 40
0.8888888888888891
 40
0.8888888888888891
 40
0.8888888888888891
 40
1.0
 40
1.0
 40
1.0
 40
1.0
 10
0.2792007874015748
 20
-1.084464566929134
 30
0.0
 10
0.2869488188976378
 20
-1.084464566929134
 30
0.0
 10
0.2933385826771653
 20
-1.08151968503937
 30
0.0
 10
0.2983661417322835
 20
-1.075629921259843
 30
0.0
 10
0.2983661417322835
 20
-1.075629921259843
 30
0.0
 10
0.3033661417322835
 20
-1.069740157480315
 30
0.0
 10
0.3058937007874016
 20
-1.062657480314961
 30
0.0
 10
0.3058937007874016
 20
-1.054354330708661
 30
0.0
 10
0.3058937007874016
 20
-1.054354330708661
 30
0.0
 10
0.3058937007874016
 20
-1.048492125984252
 30
0.0
 10
0.3046732283464567
 20
-1.043074803149606
 30
0.0
 10
0.3022283464566929
 20
-1.038102362204725
 30
0.0
 10
0.3022283464566929
 20
-1.038102362204725
 30
0.0
 10
0.2997834645669292
 20
-1.033157480314961
 30
0.0
 10
0.2966456692913386
 20
-1.029464566929134
 30
0.0
 10
0.2928110236220473
 20
-1.027047244094488
 30
0.0
 10
0.2928110236220473
 20
-1.027047244094488
 30
0.0
 10
0.289003937007874
 20
-1.024629921259843
 30
0.0
 10
0.2846456692913386
 20
-1.023437007874016
 30
0.0
 10
0.279755905511811
 20
-1.023437007874016
 30
0.0
 10
0.279755905511811
 20
-1.023437007874016
 30
0.0
 10
0.2723385826771654
 20
-1.023437007874016
 30
0.0
 10
0.2661181102362205
 20
-1.026267716535433
 30
0.0
 10
0.2611181102362205
 20
-1.031937007874016
 30
0.0
 10
0.2611181102362205
 20
-1.031937007874016
 30
0.0
 10
0.2561456692913386
 20
-1.037602362204724
 30
0.0
 10
0.2536456692913386
 20
-1.045212598425197
 30
0.0
 10
0.2536456692913386
 20
-1.054740157480315
 30
0.0
 10
0.2536456692913386
 20
-1.054740157480315
 30
0.0
 10
0.2536456692913386
 20
-1.06388188976378
 30
0.0
 10
0.2560629921259843
 20
-1.071102362204724
 30
0.0
 10
0.2609212598425197
 20
-1.076437007874016
 30
0.0
 10
0.2609212598425197
 20
-1.076437007874016
 30
0.0
 10
0.2657834645669291
 20
-1.081795275590551
 30
0.0
 10
0.2718661417322835
 20
-1.084464566929134
 30
0.0
 10
0.2792007874015748
 20
-1.084464566929134
 30
0.0
  0
SPLINE
  5
39
330
1F
100
AcDbEntity
  8
LAYER_1
 62
   250
100
AcDbSpline
210
0.0
220
0.0
230
1.0
 70
    11
 71
     3
 72
    72
 73
    68
 74
     0
 42
0.0000000001
 43
0.0000000001
 40
0.0
 40
0.0
 40
0.0
 40
0.0
 40
0.0588235294117647
 40
0.0588235294117647
 40
0.0588235294117647
 40
0.0588235294117647
 40
0.1176470588235294
 40
0.1176470588235294
 40
0.1176470588235294
 40
0.1176470588235294
 40
0.1764705882352941
 40
0.1764705882352941
 40
0.1764705882352941
 40
0.1764705882352941
 40
0.2352941176470588
 40
0.2352941176470588
 40
0.2352941176470588
 40
0.2352941176470588
 40
0.2941176470588235
 40
0.2941176470588235
 40
0.2941176470588235
 40
0.2941176470588235
 40
0.3529411764705883
 40
0.3529411764705883
 40
0.3529411764705883
 40
0.3529411764705883
 40
0.411764705882353
 40
0.411764705882353
 40
0.411764705882353
 40
0.411764705882353
 40
0.4705882352941177
 40
0.4705882352941177
 40
0.4705882352941177
 40
0.4705882352941177
 40
0.5294117647058824
 40
0.5294117647058824
 40
0.5294117647058824
 40
0.5294117647058824
 40
0.5882352941176471
 40
0.5882352941176471
 40
0.5882352941176471
 40
0.5882352941176471
 40
0.6470588235294118
 40
0.6470588235294118
 40
0.6470588235294118
 40
0.6470588235294118
 40
0.7058823529411765
 40
0.7058823529411765
 40
0.7058823529411765
 40
0.7058823529411765
 40
0.7647058823529412
 40
0.7647058823529412
 40
0.7647058823529412
 40
0.7647058823529412
 40
0.823529411764706
 40
0.823529411764706
 40
0.823529411764706
 40
0.823529411764706
 40
0.8823529411764707
 40
0.8823529411764707
 40
0.8823529411764707
 40
0.8823529411764707
 40
0.9411764705882354
 40
0.9411764705882354
 40
0.9411764705882354
 40
0.9411764705882354
 40
1.0
 40
1.0
 40
1.0
 40
1.0
 10
-0.2720236220472441
 20
-1.205629921259843
 30
0.0
 10
-0.2720236220472441
 20
-1.205629921259843
 30
0.0
 10
-0.2659409448818898
 20
-1.205629921259843
 30
0.0
 10
-0.2659409448818898
 20
-1.205629921259843
 30
0.0
 10
-0.2659409448818898
 20
-1.205629921259843
 30
0.0
 10
-0.2659409448818898
 20
-1.205629921259843
 30
0.0
 10
-0.2659409448818898
 20
-1.299877952755906
 30
0.0
 10
-0.2659409448818898
 20
-1.299877952755906
 30
0.0
 10
-0.2659409448818898
 20
-1.299877952755906
 30
0.0
 10
-0.2659409448818898
 20
-1.304322834645669
 30
0.0
 10
-0.2656338582677166
 20
-1.307185039370079
 30
0.0
 10
-0.2650787401574803
 20
-1.308464566929134
 30
0.0
 10
-0.2650787401574803
 20
-1.308464566929134
 30
0.0
 10
-0.264496062992126
 20
-1.309740157480315
 30
0.0
 10
-0.2635787401574803
 20
-1.310685039370079
 30
0.0
 10
-0.2622755905511811
 20
-1.311350393700788
 30
0.0
 10
-0.2622755905511811
 20
-1.311350393700788
 30
0.0
 10
-0.2609685039370079
 20
-1.311992125984252
 30
0.0
 10
-0.2583858267716536
 20
-1.312322834645669
 30
0.0
 10
-0.2545236220472441
 20
-1.312322834645669
 30
0.0
 10
-0.2545236220472441
 20
-1.312322834645669
 30
0.0
 10
-0.2545236220472441
 20
-1.312322834645669
 30
0.0
 10
-0.2465511811023622
 20
-1.312322834645669
 30
0.0
 10
-0.2465511811023622
 20
-1.312322834645669
 30
0.0
 10
-0.2465511811023622
 20
-1.312322834645669
 30
0.0
 10
-0.2465511811023622
 20
-1.312322834645669
 30
0.0
 10
-0.2465511811023622
 20
-1.319157480314961
 30
0.0
 10
-0.2465511811023622
 20
-1.319157480314961
 30
0.0
 10
-0.2465511811023622
 20
-1.319157480314961
 30
0.0
 10
-0.2465511811023622
 20
-1.319157480314961
 30
0.0
 10
-0.3001889763779528
 20
-1.319157480314961
 30
0.0
 10
-0.3001889763779528
 20
-1.319157480314961
 30
0.0
 10
-0.3001889763779528
 20
-1.319157480314961
 30
0.0
 10
-0.3001889763779528
 20
-1.319157480314961
 30
0.0
 10
-0.3001889763779528
 20
-1.312322834645669
 30
0.0
 10
-0.3001889763779528
 20
-1.312322834645669
 30
0.0
 10
-0.3001889763779528
 20
-1.312322834645669
 30
0.0
 10
-0.3001889763779528
 20
-1.312322834645669
 30
0.0
 10
-0.2913307086614174
 20
-1.312322834645669
 30
0.0
 10
-0.2913307086614174
 20
-1.312322834645669
 30
0.0
 10
-0.2913307086614174
 20
-1.312322834645669
 30
0.0
 10
-0.2874685039370079
 20
-1.312322834645669
 30
0.0
 10
-0.2849133858267717
 20
-1.311992125984252
 30
0.0
 10
-0.2836338582677165
 20
-1.311295275590551
 30
0.0
 10
-0.2836338582677165
 20
-1.311295275590551
 30
0.0
 10
-0.2823582677165354
 20
-1.310629921259843
 30
0.0
 10
-0.2813582677165354
 20
-1.309547244094488
 30
0.0
 10
-0.2806614173228347
 20
-1.308047244094488
 30
0.0
 10
-0.2806614173228347
 20
-1.308047244094488
 30
0.0
 10
-0.2799685039370079
 20
-1.306547244094488
 30
0.0
 10
-0.2796062992125984
 20
-1.303822834645669
 30
0.0
 10
-0.2796062992125984
 20
-1.299877952755906
 30
0.0
 10
-0.2796062992125984
 20
-1.299877952755906
 30
0.0
 10
-0.2796062992125984
 20
-1.299877952755906
 30
0.0
 10
-0.2796062992125984
 20
-1.222409448818898
 30
0.0
 10
-0.2796062992125984
 20
-1.222409448818898
 30
0.0
 10
-0.2796062992125984
 20
-1.222409448818898
 30
0.0
 10
-0.2796062992125984
 20
-1.222409448818898
 30
0.0
 10
-0.3001889763779528
 20
-1.222409448818898
 30
0.0
 10
-0.3001889763779528
 20
-1.222409448818898
 30
0.0
 10
-0.3001889763779528
 20
-1.222409448818898
 30
0.0
 10
-0.3001889763779528
 20
-1.222409448818898
 30
0.0
 10
-0.3001889763779528
 20
-1.215409448818898
 30
0.0
 10
-0.3001889763779528
 20
-1.215409448818898
 30
0.0
 10
-0.3001889763779528
 20
-1.215409448818898
 30
0.0
 10
-0.2889685039370079
 20
-1.213826771653543
 30
0.0
 10
-0.2795787401574803
 20
-1.210574803149606
 30
0.0
 10
-0.2720236220472441
 20
-1.205629921259843
 30
0.0
  0
SPLINE
  5
3A
330
1F
100
AcDbEntity
  8
LAYER_1
 62
   250
100
AcDbSpline
210
0.0
220
0.0
230
1.0
 70
    11
 71
     3
 72
    60
 73
    56
 74
     0
 42
0.0000000001
 43
0.0000000001
 40
0.0
 40
0.0
 40
0.0
 40
0.0
 40
0.0714285714285714
 40
0.0714285714285714
 40
0.0714285714285714
 40
0.0714285714285714
 40
0.1428571428571429
 40
0.1428571428571429
 40
0.1428571428571429
 40
0.1428571428571429
 40
0.2142857142857143
 40
0.2142857142857143
 40
0.2142857142857143
 40
0.2142857142857143
 40
0.2857142857142857
 40
0.2857142857142857
 40
0.2857142857142857
 40
0.2857142857142857
 40
0.3571428571428571
 40
0.3571428571428571
 40
0.3571428571428571
 40
0.3571428571428571
 40
0.4285714285714285
 40
0.4285714285714285
 40
0.4285714285714285
 40
0.4285714285714285
 40
0.4999999999999999
 40
0.4999999999999999
 40
0.4999999999999999
 40
0.4999999999999999
 40
0.5714285714285713
 40
0.5714285714285713
 40
0.5714285714285713
 40
0.5714285714285713
 40
0.6428571428571427
 40
0.6428571428571427
 40
0.6428571428571427
 40
0.6428571428571427
 40
0.7142857142857141
 40
0.7142857142857141
 40
0.7142857142857141
 40
0.7142857142857141
 40
0.7857142857142855
 40
0.7857142857142855
 40
0.7857142857142855
 40
0.7857142857142855
 40
0.8571428571428569
 40
0.8571428571428569
 40
0.8571428571428569
 40
0.8571428571428569
 40
0.9285714285714283
 40
0.9285714285714283
 40
0.9285714285714283
 40
0.9285714285714283
 40
1.0
 40
1.0
 40
1.0
 40
1.0
 10
-0.2145787401574803
 20
-1.247712598425197
 30
0.0
 10
-0.2145787401574803
 20
-1.247712598425197
 30
0.0
 10
-0.2189685039370079
 20
-1.242322834645669
 30
0.0
 10
-0.2189685039370079
 20
-1.242322834645669
 30
0.0
 10
-0.2189685039370079
 20
-1.242322834645669
 30
0.0
 10
-0.2078543307086614
 20
-1.233267716535433
 30
0.0
 10
-0.2022716535433071
 20
-1.225712598425197
 30
0.0
 10
-0.2022716535433071
 20
-1.219629921259843
 30
0.0
 10
-0.2022716535433071
 20
-1.219629921259843
 30
0.0
 10
-0.2022716535433071
 20
-1.218937007874016
 30
0.0
 10
-0.2023267716535433
 20
-1.218047244094488
 30
0.0
 10
-0.2024409448818898
 20
-1.21701968503937
 30
0.0
 10
-0.2024409448818898
 20
-1.21701968503937
 30
0.0
 10
-0.2033543307086614
 20
-1.217409448818898
 30
0.0
 10
-0.2042716535433071
 20
-1.217712598425197
 30
0.0
 10
-0.2051338582677166
 20
-1.217909448818898
 30
0.0
 10
-0.2051338582677166
 20
-1.217909448818898
 30
0.0
 10
-0.205996062992126
 20
-1.218129921259843
 30
0.0
 10
-0.2067992125984252
 20
-1.218240157480315
 30
0.0
 10
-0.2075787401574803
 20
-1.218240157480315
 30
0.0
 10
-0.2075787401574803
 20
-1.218240157480315
 30
0.0
 10
-0.2101889763779528
 20
-1.218240157480315
 30
0.0
 10
-0.2122716535433071
 20
-1.217409448818898
 30
0.0
 10
-0.2138267716535433
 20
-1.215712598425197
 30
0.0
 10
-0.2138267716535433
 20
-1.215712598425197
 30
0.0
 10
-0.2154133858267717
 20
-1.214047244094488
 30
0.0
 10
-0.2161889763779528
 20
-1.211909448818898
 30
0.0
 10
-0.2161889763779528
 20
-1.209295275590551
 30
0.0
 10
-0.2161889763779528
 20
-1.209295275590551
 30
0.0
 10
-0.2161889763779528
 20
-1.206740157480315
 30
0.0
 10
-0.215244094488189
 20
-1.20451968503937
 30
0.0
 10
-0.2133543307086614
 20
-1.202629921259843
 30
0.0
 10
-0.2133543307086614
 20
-1.202629921259843
 30
0.0
 10
-0.2114409448818898
 20
-1.200712598425197
 30
0.0
 10
-0.2091614173228347
 20
-1.199767716535433
 30
0.0
 10
-0.2065236220472441
 20
-1.199767716535433
 30
0.0
 10
-0.2065236220472441
 20
-1.199767716535433
 30
0.0
 10
-0.2028267716535433
 20
-1.199767716535433
 30
0.0
 10
-0.1996614173228347
 20
-1.201240157480315
 30
0.0
 10
-0.1970236220472441
 20
-1.204212598425197
 30
0.0
 10
-0.1970236220472441
 20
-1.204212598425197
 30
0.0
 10
-0.1944133858267717
 20
-1.207157480314961
 30
0.0
 10
-0.1930787401574803
 20
-1.210964566929134
 30
0.0
 10
-0.1930787401574803
 20
-1.215629921259843
 30
0.0
 10
-0.1930787401574803
 20
-1.215629921259843
 30
0.0
 10
-0.1930787401574803
 20
-1.218685039370079
 30
0.0
 10
-0.1937165354330709
 20
-1.22188188976378
 30
0.0
 10
-0.1949685039370079
 20
-1.225212598425197
 30
0.0
 10
-0.1949685039370079
 20
-1.225212598425197
 30
0.0
 10
-0.1962165354330709
 20
-1.228547244094488
 30
0.0
 10
-0.1980236220472441
 20
-1.231629921259843
 30
0.0
 10
-0.2004133858267717
 20
-1.234492125984252
 30
0.0
 10
-0.2004133858267717
 20
-1.234492125984252
 30
0.0
 10
-0.2027992125984252
 20
-1.237322834645669
 30
0.0
 10
-0.2075236220472441
 20
-1.241740157480315
 30
0.0
 10
-0.2145787401574803
 20
-1.247712598425197
 30
0.0
  0
SPLINE
  5
3B
330
1F
100
AcDbEntity
  8
LAYER_1
 62
   250
100
AcDbSpline
210
0.0
220
0.0
230
1.0
 70
    11
 71
     3
 72
    60
 73
    56
 74
     0
 42
0.0000000001
 43
0.0000000001
 40
0.0
 40
0.0
 40
0.0
 40
0.0
 40
0.0714285714285714
 40
0.0714285714285714
 40
0.0714285714285714
 40
0.0714285714285714
 40
0.1428571428571429
 40
0.1428571428571429
 40
0.1428571428571429
 40
0.1428571428571429
 40
0.2142857142857143
 40
0.2142857142857143
 40
0.2142857142857143
 40
0.2142857142857143
 40
0.2857142857142857
 40
0.2857142857142857
 40
0.2857142857142857
 40
0.2857142857142857
 40
0.3571428571428571
 40
0.3571428571428571
 40
0.3571428571428571
 40
0.3571428571428571
 40
0.4285714285714285
 40
0.4285714285714285
 40
0.4285714285714285
 40
0.4285714285714285
 40
0.4999999999999999
 40
0.4999999999999999
 40
0.4999999999999999
 40
0.4999999999999999
 40
0.5714285714285713
 40
0.5714285714285713
 40
0.5714285714285713
 40
0.5714285714285713
 40
0.6428571428571427
 40
0.6428571428571427
 40
0.6428571428571427
 40
0.6428571428571427
 40
0.7142857142857141
 40
0.7142857142857141
 40
0.7142857142857141
 40
0.7142857142857141
 40
0.7857142857142855
 40
0.7857142857142855
 40
0.7857142857142855
 40
0.7857142857142855
 40
0.8571428571428569
 40
0.8571428571428569
 40
0.8571428571428569
 40
0.8571428571428569
 40
0.9285714285714283
 40
0.9285714285714283
 40
0.9285714285714283
 40
0.9285714285714283
 40
1.0
 40
1.0
 40
1.0
 40
1.0
 10
-0.1855236220472441
 20
-1.247712598425197
 30
0.0
 10
-0.1855236220472441
 20
-1.247712598425197
 30
0.0
 10
-0.1899133858267717
 20
-1.242322834645669
 30
0.0
 10
-0.1899133858267717
 20
-1.242322834645669
 30
0.0
 10
-0.1899133858267717
 20
-1.242322834645669
 30
0.0
 10
-0.1787992125984252
 20
-1.233267716535433
 30
0.0
 10
-0.1732165354330709
 20
-1.225712598425197
 30
0.0
 10
-0.1732165354330709
 20
-1.219629921259843
 30
0.0
 10
-0.1732165354330709
 20
-1.219629921259843
 30
0.0
 10
-0.1732165354330709
 20
-1.218937007874016
 30
0.0
 10
-0.1732716535433071
 20
-1.218047244094488
 30
0.0
 10
-0.1733858267716535
 20
-1.21701968503937
 30
0.0
 10
-0.1733858267716535
 20
-1.21701968503937
 30
0.0
 10
-0.1742992125984252
 20
-1.217409448818898
 30
0.0
 10
-0.1752165354330709
 20
-1.217712598425197
 30
0.0
 10
-0.1760787401574803
 20
-1.217909448818898
 30
0.0
 10
-0.1760787401574803
 20
-1.217909448818898
 30
0.0
 10
-0.1769409448818898
 20
-1.218129921259843
 30
0.0
 10
-0.1777716535433071
 20
-1.218240157480315
 30
0.0
 10
-0.1786062992125984
 20
-1.218240157480315
 30
0.0
 10
-0.1786062992125984
 20
-1.218240157480315
 30
0.0
 10
-0.1811614173228346
 20
-1.218240157480315
 30
0.0
 10
-0.1832165354330709
 20
-1.217409448818898
 30
0.0
 10
-0.1847716535433071
 20
-1.215712598425197
 30
0.0
 10
-0.1847716535433071
 20
-1.215712598425197
 30
0.0
 10
-0.1863543307086614
 20
-1.214047244094488
 30
0.0
 10
-0.1871338582677165
 20
-1.211909448818898
 30
0.0
 10
-0.1871338582677165
 20
-1.209295275590551
 30
0.0
 10
-0.1871338582677165
 20
-1.209295275590551
 30
0.0
 10
-0.1871338582677165
 20
-1.206740157480315
 30
0.0
 10
-0.1861889763779528
 20
-1.20451968503937
 30
0.0
 10
-0.1842992125984252
 20
-1.202629921259843
 30
0.0
 10
-0.1842992125984252
 20
-1.202629921259843
 30
0.0
 10
-0.1824133858267717
 20
-1.200712598425197
 30
0.0
 10
-0.1801062992125984
 20
-1.199767716535433
 30
0.0
 10
-0.1774685039370079
 20
-1.199767716535433
 30
0.0
 10
-0.1774685039370079
 20
-1.199767716535433
 30
0.0
 10
-0.1737716535433071
 20
-1.199767716535433
 30
0.0
 10
-0.1706062992125984
 20
-1.201240157480315
 30
0.0
 10
-0.1679685039370079
 20
-1.204212598425197
 30
0.0
 10
-0.1679685039370079
 20
-1.204212598425197
 30
0.0
 10
-0.1653582677165355
 20
-1.207157480314961
 30
0.0
 10
-0.1640236220472441
 20
-1.210964566929134
 30
0.0
 10
-0.1640236220472441
 20
-1.215629921259843
 30
0.0
 10
-0.1640236220472441
 20
-1.215629921259843
 30
0.0
 10
-0.1640236220472441
 20
-1.218685039370079
 30
0.0
 10
-0.1646614173228347
 20
-1.22188188976378
 30
0.0
 10
-0.1659133858267717
 20
-1.225212598425197
 30
0.0
 10
-0.1659133858267717
 20
-1.225212598425197
 30
0.0
 10
-0.1671614173228347
 20
-1.228547244094488
 30
0.0
 10
-0.1689685039370079
 20
-1.231629921259843
 30
0.0
 10
-0.1713543307086614
 20
-1.234492125984252
 30
0.0
 10
-0.1713543307086614
 20
-1.234492125984252
 30
0.0
 10
-0.173744094488189
 20
-1.237322834645669
 30
0.0
 10
-0.1784685039370079
 20
-1.241740157480315
 30
0.0
 10
-0.1855236220472441
 20
-1.247712598425197
 30
0.0
  0
SPLINE
  5
3C
330
1F
100
AcDbEntity
  8
LAYER_1
 62
   250
100
AcDbSpline
210
0.0
220
0.0
230
1.0
 70
    11
 71
     3
 72
   200
 73
   196
 74
     0
 42
0.0000000001
 43
0.0000000001
 40
0.0
 40
0.0
 40
0.0
 40
0.0
 40
0.0204081632653061
 40
0.0204081632653061
 40
0.0204081632653061
 40
0.0204081632653061
 40
0.0408163265306122
 40
0.0408163265306122
 40
0.0408163265306122
 40
0.0408163265306122
 40
0.0612244897959184
 40
0.0612244897959184
 40
0.0612244897959184
 40
0.0612244897959184
 40
0.0816326530612245
 40
0.0816326530612245
 40
0.0816326530612245
 40
0.0816326530612245
 40
0.1020408163265306
 40
0.1020408163265306
 40
0.1020408163265306
 40
0.1020408163265306
 40
0.1224489795918367
 40
0.1224489795918367
 40
0.1224489795918367
 40
0.1224489795918367
 40
0.1428571428571429
 40
0.1428571428571429
 40
0.1428571428571429
 40
0.1428571428571429
 40
0.163265306122449
 40
0.163265306122449
 40
0.163265306122449
 40
0.163265306122449
 40
0.1836734693877551
 40
0.1836734693877551
 40
0.1836734693877551
 40
0.1836734693877551
 40
0.2040816326530612
 40
0.2040816326530612
 40
0.2040816326530612
 40
0.2040816326530612
 40
0.2244897959183673
 40
0.2244897959183673
 40
0.2244897959183673
 40
0.2244897959183673
 40
0.2448979591836734
 40
0.2448979591836734
 40
0.2448979591836734
 40
0.2448979591836734
 40
0.2653061224489796
 40
0.2653061224489796
 40
0.2653061224489796
 40
0.2653061224489796
 40
0.2857142857142857
 40
0.2857142857142857
 40
0.2857142857142857
 40
0.2857142857142857
 40
0.3061224489795918
 40
0.3061224489795918
 40
0.3061224489795918
 40
0.3061224489795918
 40
0.326530612244898
 40
0.326530612244898
 40
0.326530612244898
 40
0.326530612244898
 40
0.3469387755102041
 40
0.3469387755102041
 40
0.3469387755102041
 40
0.3469387755102041
 40
0.3673469387755103
 40
0.3673469387755103
 40
0.3673469387755103
 40
0.3673469387755103
 40
0.3877551020408164
 40
0.3877551020408164
 40
0.3877551020408164
 40
0.3877551020408164
 40
0.4081632653061226
 40
0.4081632653061226
 40
0.4081632653061226
 40
0.4081632653061226
 40
0.4285714285714287
 40
0.4285714285714287
 40
0.4285714285714287
 40
0.4285714285714287
 40
0.4489795918367349
 40
0.4489795918367349
 40
0.4489795918367349
 40
0.4489795918367349
 40
0.469387755102041
 40
0.469387755102041
 40
0.469387755102041
 40
0.469387755102041
 40
0.4897959183673472
 40
0.4897959183673472
 40
0.4897959183673472
 40
0.4897959183673472
 40
0.5102040816326533
 40
0.5102040816326533
 40
0.5102040816326533
 40
0.5102040816326533
 40
0.5306122448979594
 40
0.5306122448979594
 40
0.5306122448979594
 40
0.5306122448979594
 40
0.5510204081632656
 40
0.5510204081632656
 40
0.5510204081632656
 40
0.5510204081632656
 40
0.5714285714285717
 40
0.5714285714285717
 40
0.5714285714285717
 40
0.5714285714285717
 40
0.5918367346938779
 40
0.5918367346938779
 40
0.5918367346938779
 40
0.5918367346938779
 40
0.612244897959184
 40
0.612244897959184
 40
0.612244897959184
 40
0.612244897959184
 40
0.6326530612244902
 40
0.6326530612244902
 40
0.6326530612244902
 40
0.6326530612244902
 40
0.6530612244897963
 40
0.6530612244897963
 40
0.6530612244897963
 40
0.6530612244897963
 40
0.6734693877551025
 40
0.6734693877551025
 40
0.6734693877551025
 40
0.6734693877551025
 40
0.6938775510204086
 40
0.6938775510204086
 40
0.6938775510204086
 40
0.6938775510204086
 40
0.7142857142857148
 40
0.7142857142857148
 40
0.7142857142857148
 40
0.7142857142857148
 40
0.7346938775510209
 40
0.7346938775510209
 40
0.7346938775510209
 40
0.7346938775510209
 40
0.755102040816327
 40
0.755102040816327
 40
0.755102040816327
 40
0.755102040816327
 40
0.7755102040816332
 40
0.7755102040816332
 40
0.7755102040816332
 40
0.7755102040816332
 40
0.7959183673469393
 40
0.7959183673469393
 40
0.7959183673469393
 40
0.7959183673469393
 40
0.8163265306122455
 40
0.8163265306122455
 40
0.8163265306122455
 40
0.8163265306122455
 40
0.8367346938775516
 40
0.8367346938775516
 40
0.8367346938775516
 40
0.8367346938775516
 40
0.8571428571428578
 40
0.8571428571428578
 40
0.8571428571428578
 40
0.8571428571428578
 40
0.8775510204081639
 40
0.8775510204081639
 40
0.8775510204081639
 40
0.8775510204081639
 40
0.8979591836734701
 40
0.8979591836734701
 40
0.8979591836734701
 40
0.8979591836734701
 40
0.9183673469387762
 40
0.9183673469387762
 40
0.9183673469387762
 40
0.9183673469387762
 40
0.9387755102040823
 40
0.9387755102040823
 40
0.9387755102040823
 40
0.9387755102040823
 40
0.9591836734693885
 40
0.9591836734693885
 40
0.9591836734693885
 40
0.9591836734693885
 40
0.9795918367346946
 40
0.9795918367346946
 40
0.9795918367346946
 40
0.9795918367346946
 40
1.0
 40
1.0
 40
1.0
 40
1.0
 10
-0.0993543307086614
 20
-1.205629921259843
 30
0.0
 10
-0.0993543307086614
 20
-1.205629921259843
 30
0.0
 10
-0.0559685039370079
 20
-1.205629921259843
 30
0.0
 10
-0.0559685039370079
 20
-1.205629921259843
 30
0.0
 10
-0.0559685039370079
 20
-1.205629921259843
 30
0.0
 10
-0.0559685039370079
 20
-1.205629921259843
 30
0.0
 10
-0.0559685039370079
 20
-1.212547244094488
 30
0.0
 10
-0.0559685039370079
 20
-1.212547244094488
 30
0.0
 10
-0.0559685039370079
 20
-1.212547244094488
 30
0.0
 10
-0.0559685039370079
 20
-1.212547244094488
 30
0.0
 10
-0.0593818897637795
 20
-1.212547244094488
 30
0.0
 10
-0.0593818897637795
 20
-1.212547244094488
 30
0.0
 10
-0.0593818897637795
 20
-1.212547244094488
 30
0.0
 10
-0.0626338582677165
 20
-1.212547244094488
 30
0.0
 10
-0.0647165354330709
 20
-1.212767716535433
 30
0.0
 10
-0.0655787401574803
 20
-1.213212598425197
 30
0.0
 10
-0.0655787401574803
 20
-1.213212598425197
 30
0.0
 10
-0.0664409448818898
 20
-1.213629921259843
 30
0.0
 10
-0.0668818897637795
 20
-1.214354330708662
 30
0.0
 10
-0.0668818897637795
 20
-1.215326771653543
 30
0.0
 10
-0.0668818897637795
 20
-1.215326771653543
 30
0.0
 10
-0.0668818897637795
 20
-1.215964566929134
 30
0.0
 10
-0.0667165354330709
 20
-1.216629921259843
 30
0.0
 10
-0.0663818897637795
 20
-1.217267716535433
 30
0.0
 10
-0.0663818897637795
 20
-1.217267716535433
 30
0.0
 10
-0.0660511811023622
 20
-1.217909448818898
 30
0.0
 10
-0.0650787401574803
 20
-1.219326771653543
 30
0.0
 10
-0.0634685039370079
 20
-1.221492125984252
 30
0.0
 10
-0.0634685039370079
 20
-1.221492125984252
 30
0.0
 10
-0.0634685039370079
 20
-1.221492125984252
 30
0.0
 10
-0.0422165354330709
 20
-1.250464566929134
 30
0.0
 10
-0.0422165354330709
 20
-1.250464566929134
 30
0.0
 10
-0.0422165354330709
 20
-1.250464566929134
 30
0.0
 10
-0.0422165354330709
 20
-1.250464566929134
 30
0.0
 10
-0.0190236220472441
 20
-1.221492125984252
 30
0.0
 10
-0.0190236220472441
 20
-1.221492125984252
 30
0.0
 10
-0.0190236220472441
 20
-1.221492125984252
 30
0.0
 10
-0.0168543307086614
 20
-1.218795275590551
 30
0.0
 10
-0.0157716535433071
 20
-1.216712598425197
 30
0.0
 10
-0.0157716535433071
 20
-1.215326771653543
 30
0.0
 10
-0.0157716535433071
 20
-1.215326771653543
 30
0.0
 10
-0.0157716535433071
 20
-1.214437007874016
 30
0.0
 10
-0.0161889763779528
 20
-1.213767716535433
 30
0.0
 10
-0.0170236220472441
 20
-1.213267716535433
 30
0.0
 10
-0.0170236220472441
 20
-1.213267716535433
 30
0.0
 10
-0.0178858267716535
 20
-1.212795275590551
 30
0.0
 10
-0.0196338582677165
 20
-1.212547244094488
 30
0.0
 10
-0.0223543307086614
 20
-1.212547244094488
 30
0.0
 10
-0.0223543307086614
 20
-1.212547244094488
 30
0.0
 10
-0.0223543307086614
 20
-1.212547244094488
 30
0.0
 10
-0.0265236220472441
 20
-1.212547244094488
 30
0.0
 10
-0.0265236220472441
 20
-1.212547244094488
 30
0.0
 10
-0.0265236220472441
 20
-1.212547244094488
 30
0.0
 10
-0.0265236220472441
 20
-1.212547244094488
 30
0.0
 10
-0.0265236220472441
 20
-1.205629921259843
 30
0.0
 10
-0.0265236220472441
 20
-1.205629921259843
 30
0.0
 10
-0.0265236220472441
 20
-1.205629921259843
 30
0.0
 10
-0.0265236220472441
 20
-1.205629921259843
 30
0.0
 10
0.0103661417322835
 20
-1.205629921259843
 30
0.0
 10
0.0103661417322835
 20
-1.205629921259843
 30
0.0
 10
0.0103661417322835
 20
-1.205629921259843
 30
0.0
 10
0.0103661417322835
 20
-1.205629921259843
 30
0.0
 10
0.0103661417322835
 20
-1.212547244094488
 30
0.0
 10
0.0103661417322835
 20
-1.212547244094488
 30
0.0
 10
0.0103661417322835
 20
-1.212547244094488
 30
0.0
 10
0.0059488188976378
 20
-1.212547244094488
 30
0.0
 10
0.0028110236220472
 20
-1.21301968503937
 30
0.0
 10
0.0008661417322835
 20
-1.213937007874016
 30
0.0
 10
0.0008661417322835
 20
-1.213937007874016
 30
0.0
 10
-0.0010511811023622
 20
-1.214854330708661
 30
0.0
 10
-0.0037165354330709
 20
-1.21738188976378
 30
0.0
 10
-0.0071338582677165
 20
-1.221492125984252
 30
0.0
 10
-0.0071338582677165
 20
-1.221492125984252
 30
0.0
 10
-0.0071338582677165
 20
-1.221492125984252
 30
0.0
 10
-0.0367716535433071
 20
-1.257074803149606
 30
0.0
 10
-0.0367716535433071
 20
-1.257074803149606
 30
0.0
 10
-0.0367716535433071
 20
-1.257074803149606
 30
0.0
 10
-0.0367716535433071
 20
-1.257074803149606
 30
0.0
 10
-0.0018543307086614
 20
-1.302877952755906
 30
0.0
 10
-0.0018543307086614
 20
-1.302877952755906
 30
0.0
 10
-0.0018543307086614
 20
-1.302877952755906
 30
0.0
 10
0.0003661417322835
 20
-1.305822834645669
 30
0.0
 10
0.002255905511811
 20
-1.307877952755906
 30
0.0
 10
0.003755905511811
 20
-1.309102362204724
 30
0.0
 10
0.003755905511811
 20
-1.309102362204724
 30
0.0
 10
0.0052834645669291
 20
-1.310322834645669
 30
0.0
 10
0.006755905511811
 20
-1.311157480314961
 30
0.0
 10
0.0081417322834646
 20
-1.311629921259843
 30
0.0
 10
0.0081417322834646
 20
-1.311629921259843
 30
0.0
 10
0.0095590551181102
 20
-1.312102362204725
 30
0.0
 10
0.0118937007874016
 20
-1.312322834645669
 30
0.0
 10
0.0151417322834646
 20
-1.312322834645669
 30
0.0
 10
0.0151417322834646
 20
-1.312322834645669
 30
0.0
 10
0.0151417322834646
 20
-1.312322834645669
 30
0.0
 10
0.0151417322834646
 20
-1.319157480314961
 30
0.0
 10
0.0151417322834646
 20
-1.319157480314961
 30
0.0
 10
0.0151417322834646
 20
-1.319157480314961
 30
0.0
 10
0.0151417322834646
 20
-1.319157480314961
 30
0.0
 10
-0.0283818897637795
 20
-1.319157480314961
 30
0.0
 10
-0.0283818897637795
 20
-1.319157480314961
 30
0.0
 10
-0.0283818897637795
 20
-1.319157480314961
 30
0.0
 10
-0.0283818897637795
 20
-1.319157480314961
 30
0.0
 10
-0.0283818897637795
 20
-1.312322834645669
 30
0.0
 10
-0.0283818897637795
 20
-1.312322834645669
 30
0.0
 10
-0.0283818897637795
 20
-1.312322834645669
 30
0.0
 10
-0.0283818897637795
 20
-1.312322834645669
 30
0.0
 10
-0.0249685039370079
 20
-1.312322834645669
 30
0.0
 10
-0.0249685039370079
 20
-1.312322834645669
 30
0.0
 10
-0.0249685039370079
 20
-1.312322834645669
 30
0.0
 10
-0.0216062992125984
 20
-1.312322834645669
 30
0.0
 10
-0.0194685039370079
 20
-1.312102362204725
 30
0.0
 10
-0.0185787401574803
 20
-1.311629921259843
 30
0.0
 10
-0.0185787401574803
 20
-1.311629921259843
 30
0.0
 10
-0.0176889763779528
 20
-1.311157480314961
 30
0.0
 10
-0.017244094488189
 20
-1.310437007874016
 30
0.0
 10
-0.017244094488189
 20
-1.309377952755906
 30
0.0
 10
-0.017244094488189
 20
-1.309377952755906
 30
0.0
 10
-0.017244094488189
 20
-1.308795275590551
 30
0.0
 10
-0.0173858267716535
 20
-1.308157480314961
 30
0.0
 10
-0.0177165354330709
 20
-1.30751968503937
 30
0.0
 10
-0.0177165354330709
 20
-1.30751968503937
 30
0.0
 10
-0.0178267716535433
 20
-1.307240157480315
 30
0.0
 10
-0.0189133858267717
 20
-1.305712598425197
 30
0.0
 10
-0.0209685039370079
 20
-1.302877952755906
 30
0.0
 10
-0.0209685039370079
 20
-1.302877952755906
 30
0.0
 10
-0.0209685039370079
 20
-1.302877952755906
 30
0.0
 10
-0.0469409448818898
 20
-1.268212598425197
 30
0.0
 10
-0.0469409448818898
 20
-1.268212598425197
 30
0.0
 10
-0.0469409448818898
 20
-1.268212598425197
 30
0.0
 10
-0.0469409448818898
 20
-1.268212598425197
 30
0.0
 10
-0.0753267716535433
 20
-1.303937007874016
 30
0.0
 10
-0.0753267716535433
 20
-1.303937007874016
 30
0.0
 10
-0.0753267716535433
 20
-1.303937007874016
 30
0.0
 10
-0.0770787401574803
 20
-1.306047244094488
 30
0.0
 10
-0.0780511811023622
 20
-1.307350393700788
 30
0.0
 10
-0.0782716535433071
 20
-1.307850393700788
 30
0.0
 10
-0.0782716535433071
 20
-1.307850393700788
 30
0.0
 10
-0.0786062992125984
 20
-1.308437007874016
 30
0.0
 10
-0.078744094488189
 20
-1.30901968503937
 30
0.0
 10
-0.078744094488189
 20
-1.309547244094488
 30
0.0
 10
-0.078744094488189
 20
-1.309547244094488
 30
0.0
 10
-0.078744094488189
 20
-1.310574803149606
 30
0.0
 10
-0.0781338582677165
 20
-1.311350393700788
 30
0.0
 10
-0.0768818897637795
 20
-1.311822834645669
 30
0.0
 10
-0.0768818897637795
 20
-1.311822834645669
 30
0.0
 10
-0.0760787401574803
 20
-1.312157480314961
 30
0.0
 10
-0.0741338582677165
 20
-1.312322834645669
 30
0.0
 10
-0.0711062992125984
 20
-1.312322834645669
 30
0.0
 10
-0.0711062992125984
 20
-1.312322834645669
 30
0.0
 10
-0.0711062992125984
 20
-1.312322834645669
 30
0.0
 10
-0.0676889763779528
 20
-1.312322834645669
 30
0.0
 10
-0.0676889763779528
 20
-1.312322834645669
 30
0.0
 10
-0.0676889763779528
 20
-1.312322834645669
 30
0.0
 10
-0.0676889763779528
 20
-1.312322834645669
 30
0.0
 10
-0.0676889763779528
 20
-1.319157480314961
 30
0.0
 10
-0.0676889763779528
 20
-1.319157480314961
 30
0.0
 10
-0.0676889763779528
 20
-1.319157480314961
 30
0.0
 10
-0.0676889763779528
 20
-1.319157480314961
 30
0.0
 10
-0.1044685039370079
 20
-1.319157480314961
 30
0.0
 10
-0.1044685039370079
 20
-1.319157480314961
 30
0.0
 10
-0.1044685039370079
 20
-1.319157480314961
 30
0.0
 10
-0.1044685039370079
 20
-1.319157480314961
 30
0.0
 10
-0.1044685039370079
 20
-1.312322834645669
 30
0.0
 10
-0.1044685039370079
 20
-1.312322834645669
 30
0.0
 10
-0.1044685039370079
 20
-1.312322834645669
 30
0.0
 10
-0.1011062992125984
 20
-1.312322834645669
 30
0.0
 10
-0.0986614173228346
 20
-1.312102362204725
 30
0.0
 10
-0.0971062992125984
 20
-1.311629921259843
 30
0.0
 10
-0.0971062992125984
 20
-1.311629921259843
 30
0.0
 10
-0.0955511811023622
 20
-1.311157480314961
 30
0.0
 10
-0.093996062992126
 20
-1.310350393700787
 30
0.0
 10
-0.0924370078740158
 20
-1.309157480314961
 30
0.0
 10
-0.0924370078740158
 20
-1.309157480314961
 30
0.0
 10
-0.0908543307086614
 20
-1.307964566929134
 30
0.0
 10
-0.0888543307086614
 20
-1.305850393700788
 30
0.0
 10
-0.0864094488188976
 20
-1.302877952755906
 30
0.0
 10
-0.0864094488188976
 20
-1.302877952755906
 30
0.0
 10
-0.0864094488188976
 20
-1.302877952755906
 30
0.0
 10
-0.0521338582677165
 20
-1.261629921259843
 30
0.0
 10
-0.0521338582677165
 20
-1.261629921259843
 30
0.0
 10
-0.0521338582677165
 20
-1.261629921259843
 30
0.0
 10
-0.0521338582677165
 20
-1.261629921259843
 30
0.0
 10
-0.0825787401574803
 20
-1.221492125984252
 30
0.0
 10
-0.0825787401574803
 20
-1.221492125984252
 30
0.0
 10
-0.0825787401574803
 20
-1.221492125984252
 30
0.0
 10
-0.0856062992125984
 20
-1.217492125984252
 30
0.0
 10
-0.0881062992125984
 20
-1.214992125984252
 30
0.0
 10
-0.0900236220472441
 20
-1.21401968503937
 30
0.0
 10
-0.0900236220472441
 20
-1.21401968503937
 30
0.0
 10
-0.0919685039370079
 20
-1.213047244094488
 30
0.0
 10
-0.0950511811023622
 20
-1.212547244094488
 30
0.0
 10
-0.0993543307086614
 20
-1.212547244094488
 30
0.0
 10
-0.0993543307086614
 20
-1.212547244094488
 30
0.0
 10
-0.0993543307086614
 20
-1.212547244094488
 30
0.0
 10
-0.0993543307086614
 20
-1.205629921259843
 30
0.0
 10
-0.0993543307086614
 20
-1.205629921259843
 30
0.0
  0
SPLINE
  5
3D
330
1F
100
AcDbEntity
  8
LAYER_1
 62
   250
100
AcDbSpline
210
0.0
220
0.0
230
1.0
 70
    11
 71
     3
 72
    48
 73
    44
 74
     0
 42
0.0000000001
 43
0.0000000001
 40
0.0
 40
0.0
 40
0.0
 40
0.0
 40
0.0909090909090909
 40
0.0909090909090909
 40
0.0909090909090909
 40
0.0909090909090909
 40
0.1818181818181818
 40
0.1818181818181818
 40
0.1818181818181818
 40
0.1818181818181818
 40
0.2727272727272727
 40
0.2727272727272727
 40
0.2727272727272727
 40
0.2727272727272727
 40
0.3636363636363637
 40
0.3636363636363637
 40
0.3636363636363637
 40
0.3636363636363637
 40
0.4545454545454546
 40
0.4545454545454546
 40
0.4545454545454546
 40
0.4545454545454546
 40
0.5454545454545455
 40
0.5454545454545455
 40
0.5454545454545455
 40
0.5454545454545455
 40
0.6363636363636365
 40
0.6363636363636365
 40
0.6363636363636365
 40
0.6363636363636365
 40
0.7272727272727274
 40
0.7272727272727274
 40
0.7272727272727274
 40
0.7272727272727274
 40
0.8181818181818183
 40
0.8181818181818183
 40
0.8181818181818183
 40
0.8181818181818183
 40
0.9090909090909093
 40
0.9090909090909093
 40
0.9090909090909093
 40
0.9090909090909093
 40
1.0
 40
1.0
 40
1.0
 40
1.0
 10
0.129007874015748
 20
-1.205629921259843
 30
0.0
 10
0.129007874015748
 20
-1.205629921259843
 30
0.0
 10
0.142755905511811
 20
-1.205629921259843
 30
0.0
 10
0.142755905511811
 20
-1.205629921259843
 30
0.0
 10
0.142755905511811
 20
-1.205629921259843
 30
0.0
 10
0.142755905511811
 20
-1.205629921259843
 30
0.0
 10
0.142755905511811
 20
-1.271629921259843
 30
0.0
 10
0.142755905511811
 20
-1.271629921259843
 30
0.0
 10
0.142755905511811
 20
-1.271629921259843
 30
0.0
 10
0.142755905511811
 20
-1.271629921259843
 30
0.0
 10
0.1640905511811024
 20
-1.271629921259843
 30
0.0
 10
0.1640905511811024
 20
-1.271629921259843
 30
0.0
 10
0.1640905511811024
 20
-1.271629921259843
 30
0.0
 10
0.1640905511811024
 20
-1.271629921259843
 30
0.0
 10
0.1640905511811024
 20
-1.281795275590551
 30
0.0
 10
0.1640905511811024
 20
-1.281795275590551
 30
0.0
 10
0.1640905511811024
 20
-1.281795275590551
 30
0.0
 10
0.1640905511811024
 20
-1.281795275590551
 30
0.0
 10
0.142755905511811
 20
-1.281795275590551
 30
0.0
 10
0.142755905511811
 20
-1.281795275590551
 30
0.0
 10
0.142755905511811
 20
-1.281795275590551
 30
0.0
 10
0.142755905511811
 20
-1.281795275590551
 30
0.0
 10
0.142755905511811
 20
-1.319157480314961
 30
0.0
 10
0.142755905511811
 20
-1.319157480314961
 30
0.0
 10
0.142755905511811
 20
-1.319157480314961
 30
0.0
 10
0.142755905511811
 20
-1.319157480314961
 30
0.0
 10
0.129007874015748
 20
-1.319157480314961
 30
0.0
 10
0.129007874015748
 20
-1.319157480314961
 30
0.0
 10
0.129007874015748
 20
-1.319157480314961
 30
0.0
 10
0.129007874015748
 20
-1.319157480314961
 30
0.0
 10
0.129007874015748
 20
-1.281795275590551
 30
0.0
 10
0.129007874015748
 20
-1.281795275590551
 30
0.0
 10
0.129007874015748
 20
-1.281795275590551
 30
0.0
 10
0.129007874015748
 20
-1.281795275590551
 30
0.0
 10
0.0755354330708661
 20
-1.281795275590551
 30
0.0
 10
0.0755354330708661
 20
-1.281795275590551
 30
0.0
 10
0.0755354330708661
 20
-1.281795275590551
 30
0.0
 10
0.0755354330708661
 20
-1.281795275590551
 30
0.0
 10
0.0755354330708661
 20
-1.267492125984252
 30
0.0
 10
0.0755354330708661
 20
-1.267492125984252
 30
0.0
 10
0.0755354330708661
 20
-1.267492125984252
 30
0.0
 10
0.0755354330708661
 20
-1.267492125984252
 30
0.0
 10
0.129007874015748
 20
-1.205629921259843
 30
0.0
 10
0.129007874015748
 20
-1.205629921259843
 30
0.0
  0
SPLINE
  5
3E
330
1F
100
AcDbEntity
  8
LAYER_1
 62
   250
100
AcDbSpline
210
0.0
220
0.0
230
1.0
 70
    11
 71
     3
 72
    16
 73
    12
 74
     0
 42
0.0000000001
 43
0.0000000001
 40
0.0
 40
0.0
 40
0.0
 40
0.0
 40
0.3333333333333333
 40
0.3333333333333333
 40
0.3333333333333333
 40
0.3333333333333333
 40
0.6666666666666666
 40
0.6666666666666666
 40
0.6666666666666666
 40
0.6666666666666666
 40
1.0
 40
1.0
 40
1.0
 40
1.0
 10
0.129007874015748
 20
-1.271629921259843
 30
0.0
 10
0.129007874015748
 20
-1.271629921259843
 30
0.0
 10
0.129007874015748
 20
-1.218240157480315
 30
0.0
 10
0.129007874015748
 20
-1.218240157480315
 30
0.0
 10
0.129007874015748
 20
-1.218240157480315
 30
0.0
 10
0.129007874015748
 20
-1.218240157480315
 30
0.0
 10
0.0829527559055118
 20
-1.271629921259843
 30
0.0
 10
0.0829527559055118
 20
-1.271629921259843
 30
0.0
 10
0.0829527559055118
 20
-1.271629921259843
 30
0.0
 10
0.0829527559055118
 20
-1.271629921259843
 30
0.0
 10
0.129007874015748
 20
-1.271629921259843
 30
0.0
 10
0.129007874015748
 20
-1.271629921259843
 30
0.0
  0
SPLINE
  5
3F
330
1F
100
AcDbEntity
  8
LAYER_1
 62
   250
100
AcDbSpline
210
0.0
220
0.0
230
1.0
 70
    11
 71
     3
 72
    60
 73
    56
 74
     0
 42
0.0000000001
 43
0.0000000001
 40
0.0
 40
0.0
 40
0.0
 40
0.0
 40
0.0714285714285714
 40
0.0714285714285714
 40
0.0714285714285714
 40
0.0714285714285714
 40
0.1428571428571429
 40
0.1428571428571429
 40
0.1428571428571429
 40
0.1428571428571429
 40
0.2142857142857143
 40
0.2142857142857143
 40
0.2142857142857143
 40
0.2142857142857143
 40
0.2857142857142857
 40
0.2857142857142857
 40
0.2857142857142857
 40
0.2857142857142857
 40
0.3571428571428571
 40
0.3571428571428571
 40
0.3571428571428571
 40
0.3571428571428571
 40
0.4285714285714285
 40
0.4285714285714285
 40
0.4285714285714285
 40
0.4285714285714285
 40
0.4999999999999999
 40
0.4999999999999999
 40
0.4999999999999999
 40
0.4999999999999999
 40
0.5714285714285713
 40
0.5714285714285713
 40
0.5714285714285713
 40
0.5714285714285713
 40
0.6428571428571427
 40
0.6428571428571427
 40
0.6428571428571427
 40
0.6428571428571427
 40
0.7142857142857141
 40
0.7142857142857141
 40
0.7142857142857141
 40
0.7142857142857141
 40
0.7857142857142855
 40
0.7857142857142855
 40
0.7857142857142855
 40
0.7857142857142855
 40
0.8571428571428569
 40
0.8571428571428569
 40
0.8571428571428569
 40
0.8571428571428569
 40
0.9285714285714283
 40
0.9285714285714283
 40
0.9285714285714283
 40
0.9285714285714283
 40
1.0
 40
1.0
 40
1.0
 40
1.0
 10
0.1820629921259843
 20
-1.247712598425197
 30
0.0
 10
0.1820629921259843
 20
-1.247712598425197
 30
0.0
 10
0.1776732283464567
 20
-1.242322834645669
 30
0.0
 10
0.1776732283464567
 20
-1.242322834645669
 30
0.0
 10
0.1776732283464567
 20
-1.242322834645669
 30
0.0
 10
0.1887874015748031
 20
-1.233267716535433
 30
0.0
 10
0.1943700787401575
 20
-1.225712598425197
 30
0.0
 10
0.1943700787401575
 20
-1.219629921259843
 30
0.0
 10
0.1943700787401575
 20
-1.219629921259843
 30
0.0
 10
0.1943700787401575
 20
-1.218937007874016
 30
0.0
 10
0.1943149606299213
 20
-1.218047244094488
 30
0.0
 10
0.1942007874015748
 20
-1.21701968503937
 30
0.0
 10
0.1942007874015748
 20
-1.21701968503937
 30
0.0
 10
0.1932874015748032
 20
-1.217409448818898
 30
0.0
 10
0.1923700787401575
 20
-1.217712598425197
 30
0.0
 10
0.191507874015748
 20
-1.217909448818898
 30
0.0
 10
0.191507874015748
 20
-1.217909448818898
 30
0.0
 10
0.1906456692913386
 20
-1.218129921259843
 30
0.0
 10
0.1898425196850394
 20
-1.218240157480315
 30
0.0
 10
0.1890629921259843
 20
-1.218240157480315
 30
0.0
 10
0.1890629921259843
 20
-1.218240157480315
 30
0.0
 10
0.1864527559055118
 20
-1.218240157480315
 30
0.0
 10
0.1843700787401575
 20
-1.217409448818898
 30
0.0
 10
0.1828149606299213
 20
-1.215712598425197
 30
0.0
 10
0.1828149606299213
 20
-1.215712598425197
 30
0.0
 10
0.1812283464566929
 20
-1.214047244094488
 30
0.0
 10
0.1804527559055118
 20
-1.211909448818898
 30
0.0
 10
0.1804527559055118
 20
-1.209295275590551
 30
0.0
 10
0.1804527559055118
 20
-1.209295275590551
 30
0.0
 10
0.1804527559055118
 20
-1.206740157480315
 30
0.0
 10
0.1813976377952756
 20
-1.20451968503937
 30
0.0
 10
0.1832874015748032
 20
-1.202629921259843
 30
0.0
 10
0.1832874015748032
 20
-1.202629921259843
 30
0.0
 10
0.1852007874015748
 20
-1.200712598425197
 30
0.0
 10
0.1874803149606299
 20
-1.199767716535433
 30
0.0
 10
0.1901181102362205
 20
-1.199767716535433
 30
0.0
 10
0.1901181102362205
 20
-1.199767716535433
 30
0.0
 10
0.1938149606299213
 20
-1.199767716535433
 30
0.0
 10
0.1969803149606299
 20
-1.201240157480315
 30
0.0
 10
0.1996181102362205
 20
-1.204212598425197
 30
0.0
 10
0.1996181102362205
 20
-1.204212598425197
 30
0.0
 10
0.2022283464566929
 20
-1.207157480314961
 30
0.0
 10
0.2035629921259843
 20
-1.210964566929134
 30
0.0
 10
0.2035629921259843
 20
-1.215629921259843
 30
0.0
 10
0.2035629921259843
 20
-1.215629921259843
 30
0.0
 10
0.2035629921259843
 20
-1.218685039370079
 30
0.0
 10
0.2029251968503937
 20
-1.22188188976378
 30
0.0
 10
0.2016732283464567
 20
-1.225212598425197
 30
0.0
 10
0.2016732283464567
 20
-1.225212598425197
 30
0.0
 10
0.2004251968503937
 20
-1.228547244094488
 30
0.0
 10
0.1986181102362205
 20
-1.231629921259843
 30
0.0
 10
0.1962283464566929
 20
-1.234492125984252
 30
0.0
 10
0.1962283464566929
 20
-1.234492125984252
 30
0.0
 10
0.1938425196850394
 20
-1.237322834645669
 30
0.0
 10
0.1891181102362205
 20
-1.241740157480315
 30
0.0
 10
0.1820629921259843
 20
-1.247712598425197
 30
0.0
  0
SPLINE
  5
40
330
1F
100
AcDbEntity
  8
LAYER_1
 62
   250
100
AcDbSpline
210
0.0
220
0.0
230
1.0
 70
    11
 71
     3
 72
    60
 73
    56
 74
     0
 42
0.0000000001
 43
0.0000000001
 40
0.0
 40
0.0
 40
0.0
 40
0.0
 40
0.0714285714285714
 40
0.0714285714285714
 40
0.0714285714285714
 40
0.0714285714285714
 40
0.1428571428571429
 40
0.1428571428571429
 40
0.1428571428571429
 40
0.1428571428571429
 40
0.2142857142857143
 40
0.2142857142857143
 40
0.2142857142857143
 40
0.2142857142857143
 40
0.2857142857142857
 40
0.2857142857142857
 40
0.2857142857142857
 40
0.2857142857142857
 40
0.3571428571428571
 40
0.3571428571428571
 40
0.3571428571428571
 40
0.3571428571428571
 40
0.4285714285714285
 40
0.4285714285714285
 40
0.4285714285714285
 40
0.4285714285714285
 40
0.4999999999999999
 40
0.4999999999999999
 40
0.4999999999999999
 40
0.4999999999999999
 40
0.5714285714285713
 40
0.5714285714285713
 40
0.5714285714285713
 40
0.5714285714285713
 40
0.6428571428571427
 40
0.6428571428571427
 40
0.6428571428571427
 40
0.6428571428571427
 40
0.7142857142857141
 40
0.7142857142857141
 40
0.7142857142857141
 40
0.7142857142857141
 40
0.7857142857142855
 40
0.7857142857142855
 40
0.7857142857142855
 40
0.7857142857142855
 40
0.8571428571428569
 40
0.8571428571428569
 40
0.8571428571428569
 40
0.8571428571428569
 40
0.9285714285714283
 40
0.9285714285714283
 40
0.9285714285714283
 40
0.9285714285714283
 40
1.0
 40
1.0
 40
1.0
 40
1.0
 10
0.2111181102362205
 20
-1.247712598425197
 30
0.0
 10
0.2111181102362205
 20
-1.247712598425197
 30
0.0
 10
0.2067283464566929
 20
-1.242322834645669
 30
0.0
 10
0.2067283464566929
 20
-1.242322834645669
 30
0.0
 10
0.2067283464566929
 20
-1.242322834645669
 30
0.0
 10
0.2178425196850394
 20
-1.233267716535433
 30
0.0
 10
0.2234251968503937
 20
-1.225712598425197
 30
0.0
 10
0.2234251968503937
 20
-1.219629921259843
 30
0.0
 10
0.2234251968503937
 20
-1.219629921259843
 30
0.0
 10
0.2234251968503937
 20
-1.218937007874016
 30
0.0
 10
0.2233700787401575
 20
-1.218047244094488
 30
0.0
 10
0.223255905511811
 20
-1.21701968503937
 30
0.0
 10
0.223255905511811
 20
-1.21701968503937
 30
0.0
 10
0.2223425196850394
 20
-1.217409448818898
 30
0.0
 10
0.2214251968503937
 20
-1.217712598425197
 30
0.0
 10
0.2205629921259843
 20
-1.217909448818898
 30
0.0
 10
0.2205629921259843
 20
-1.217909448818898
 30
0.0
 10
0.2197007874015748
 20
-1.218129921259843
 30
0.0
 10
0.2188700787401575
 20
-1.218240157480315
 30
0.0
 10
0.2180354330708662
 20
-1.218240157480315
 30
0.0
 10
0.2180354330708662
 20
-1.218240157480315
 30
0.0
 10
0.2154803149606299
 20
-1.218240157480315
 30
0.0
 10
0.2134251968503937
 20
-1.217409448818898
 30
0.0
 10
0.2118700787401575
 20
-1.215712598425197
 30
0.0
 10
0.2118700787401575
 20
-1.215712598425197
 30
0.0
 10
0.2102874015748032
 20
-1.214047244094488
 30
0.0
 10
0.2095078740157481
 20
-1.211909448818898
 30
0.0
 10
0.2095078740157481
 20
-1.209295275590551
 30
0.0
 10
0.2095078740157481
 20
-1.209295275590551
 30
0.0
 10
0.2095078740157481
 20
-1.206740157480315
 30
0.0
 10
0.2104527559055118
 20
-1.20451968503937
 30
0.0
 10
0.2123425196850394
 20
-1.202629921259843
 30
0.0
 10
0.2123425196850394
 20
-1.202629921259843
 30
0.0
 10
0.2142283464566929
 20
-1.200712598425197
 30
0.0
 10
0.2165354330708662
 20
-1.199767716535433
 30
0.0
 10
0.2191732283464567
 20
-1.199767716535433
 30
0.0
 10
0.2191732283464567
 20
-1.199767716535433
 30
0.0
 10
0.2228700787401575
 20
-1.199767716535433
 30
0.0
 10
0.2260354330708662
 20
-1.201240157480315
 30
0.0
 10
0.2286732283464567
 20
-1.204212598425197
 30
0.0
 10
0.2286732283464567
 20
-1.204212598425197
 30
0.0
 10
0.2312834645669291
 20
-1.207157480314961
 30
0.0
 10
0.2326181102362205
 20
-1.210964566929134
 30
0.0
 10
0.2326181102362205
 20
-1.215629921259843
 30
0.0
 10
0.2326181102362205
 20
-1.215629921259843
 30
0.0
 10
0.2326181102362205
 20
-1.218685039370079
 30
0.0
 10
0.2319803149606299
 20
-1.22188188976378
 30
0.0
 10
0.2307283464566929
 20
-1.225212598425197
 30
0.0
 10
0.2307283464566929
 20
-1.225212598425197
 30
0.0
 10
0.2294803149606299
 20
-1.228547244094488
 30
0.0
 10
0.2276732283464567
 20
-1.231629921259843
 30
0.0
 10
0.2252874015748032
 20
-1.234492125984252
 30
0.0
 10
0.2252874015748032
 20
-1.234492125984252
 30
0.0
 10
0.2228976377952756
 20
-1.237322834645669
 30
0.0
 10
0.2181732283464567
 20
-1.241740157480315
 30
0.0
 10
0.2111181102362205
 20
-1.247712598425197
 30
0.0
  0
SPLINE
  5
41
330
1F
100
AcDbEntity
  8
LAYER_1
 62
   252
100
AcDbSpline
210
0.0
220
0.0
230
1.0
 70
    11
 71
     3
 72
    44
 73
    40
 74
     0
 42
0.0000000001
 43
0.0000000001
 40
0.0
 40
0.0
 40
0.0
 40
0.0
 40
0.1
 40
0.1
 40
0.1
 40
0.1
 40
0.2
 40
0.2
 40
0.2
 40
0.2
 40
0.3
 40
0.3
 40
0.3
 40
0.3
 40
0.4
 40
0.4
 40
0.4
 40
0.4
 40
0.5
 40
0.5
 40
0.5
 40
0.5
 40
0.6
 40
0.6
 40
0.6
 40
0.6
 40
0.7
 40
0.7
 40
0.7
 40
0.7
 40
0.7999999999999999
 40
0.7999999999999999
 40
0.7999999999999999
 40
0.7999999999999999
 40
0.8999999999999999
 40
0.8999999999999999
 40
0.8999999999999999
 40
0.8999999999999999
 40
1.0
 40
1.0
 40
1.0
 40
1.0
 10
1.937429133858268
 20
2.440692913385827
 30
0.0
 10
1.937429133858268
 20
2.440692913385827
 30
0.0
 10
1.939669291338583
 20
3.193795275590551
 30
0.0
 10
1.939669291338583
 20
3.193795275590551
 30
0.0
 10
1.939669291338583
 20
3.193795275590551
 30
0.0
 10
1.939669291338583
 20
3.193795275590551
 30
0.0
 10
1.937775590551181
 20
3.206204724409449
 30
0.0
 10
1.937775590551181
 20
3.206204724409449
 30
0.0
 10
1.937775590551181
 20
3.206204724409449
 30
0.0
 10
1.937775590551181
 20
3.206204724409449
 30
0.0
 10
1.934692913385827
 20
3.218181102362205
 30
0.0
 10
1.934692913385827
 20
3.218181102362205
 30
0.0
 10
1.934692913385827
 20
3.218181102362205
 30
0.0
 10
1.934692913385827
 20
3.218181102362205
 30
0.0
 10
1.930492125984252
 20
3.229669291338583
 30
0.0
 10
1.930492125984252
 20
3.229669291338583
 30
0.0
 10
1.930492125984252
 20
3.229669291338583
 30
0.0
 10
1.930492125984252
 20
3.229669291338583
 30
0.0
 10
1.925224409448819
 20
3.240590551181103
 30
0.0
 10
1.925224409448819
 20
3.240590551181103
 30
0.0
 10
1.925224409448819
 20
3.240590551181103
 30
0.0
 10
1.925224409448819
 20
3.240590551181103
 30
0.0
 10
1.922984251968504
 20
2.487488188976378
 30
0.0
 10
1.922984251968504
 20
2.487488188976378
 30
0.0
 10
1.922984251968504
 20
2.487488188976378
 30
0.0
 10
1.922984251968504
 20
2.487488188976378
 30
0.0
 10
1.928251968503937
 20
2.476566929133858
 30
0.0
 10
1.928251968503937
 20
2.476566929133858
 30
0.0
 10
1.928251968503937
 20
2.476566929133858
 30
0.0
 10
1.928251968503937
 20
2.476566929133858
 30
0.0
 10
1.932452755905512
 20
2.46507874015748
 30
0.0
 10
1.932452755905512
 20
2.46507874015748
 30
0.0
 10
1.932452755905512
 20
2.46507874015748
 30
0.0
 10
1.932452755905512
 20
2.46507874015748
 30
0.0
 10
1.935535433070866
 20
2.453102362204724
 30
0.0
 10
1.935535433070866
 20
2.453102362204724
 30
0.0
 10
1.935535433070866
 20
2.453102362204724
 30
0.0
 10
1.935535433070866
 20
2.453102362204724
 30
0.0
 10
1.937429133858268
 20
2.440692913385827
 30
0.0
 10
1.937429133858268
 20
2.440692913385827
 30
0.0
  0
SPLINE
  5
42
330
1F
100
AcDbEntity
  8
LAYER_1
 62
   253
100
AcDbSpline
210
0.0
220
0.0
230
1.0
 70
    11
 71
     3
 72
    44
 73
    40
 74
     0
 42
0.0000000001
 43
0.0000000001
 40
0.0
 40
0.0
 40
0.0
 40
0.0
 40
0.1
 40
0.1
 40
0.1
 40
0.1
 40
0.2
 40
0.2
 40
0.2
 40
0.2
 40
0.3
 40
0.3
 40
0.3
 40
0.3
 40
0.4
 40
0.4
 40
0.4
 40
0.4
 40
0.5
 40
0.5
 40
0.5
 40
0.5
 40
0.6
 40
0.6
 40
0.6
 40
0.6
 40
0.7
 40
0.7
 40
0.7
 40
0.7
 40
0.7999999999999999
 40
0.7999999999999999
 40
0.7999999999999999
 40
0.7999999999999999
 40
0.8999999999999999
 40
0.8999999999999999
 40
0.8999999999999999
 40
0.8999999999999999
 40
1.0
 40
1.0
 40
1.0
 40
1.0
 10
1.922984251968504
 20
2.487488188976378
 30
0.0
 10
1.922984251968504
 20
2.487488188976378
 30
0.0
 10
1.925224409448819
 20
3.240590551181103
 30
0.0
 10
1.925224409448819
 20
3.240590551181103
 30
0.0
 10
1.925224409448819
 20
3.240590551181103
 30
0.0
 10
1.925224409448819
 20
3.240590551181103
 30
0.0
 10
1.91896062992126
 20
3.25090157480315
 30
0.0
 10
1.91896062992126
 20
3.25090157480315
 30
0.0
 10
1.91896062992126
 20
3.25090157480315
 30
0.0
 10
1.91896062992126
 20
3.25090157480315
 30
0.0
 10
1.911763779527559
 20
3.260523622047244
 30
0.0
 10
1.911763779527559
 20
3.260523622047244
 30
0.0
 10
1.911763779527559
 20
3.260523622047244
 30
0.0
 10
1.911763779527559
 20
3.260523622047244
 30
0.0
 10
1.903700787401575
 20
3.269405511811024
 30
0.0
 10
1.903700787401575
 20
3.269405511811024
 30
0.0
 10
1.903700787401575
 20
3.269405511811024
 30
0.0
 10
1.903700787401575
 20
3.269405511811024
 30
0.0
 10
1.894818897637795
 20
3.277468503937008
 30
0.0
 10
1.894818897637795
 20
3.277468503937008
 30
0.0
 10
1.894818897637795
 20
3.277468503937008
 30
0.0
 10
1.894818897637795
 20
3.277468503937008
 30
0.0
 10
1.89257874015748
 20
2.524366141732283
 30
0.0
 10
1.89257874015748
 20
2.524366141732283
 30
0.0
 10
1.89257874015748
 20
2.524366141732283
 30
0.0
 10
1.89257874015748
 20
2.524366141732283
 30
0.0
 10
1.90146062992126
 20
2.5163031496063
 30
0.0
 10
1.90146062992126
 20
2.5163031496063
 30
0.0
 10
1.90146062992126
 20
2.5163031496063
 30
0.0
 10
1.90146062992126
 20
2.5163031496063
 30
0.0
 10
1.909523622047244
 20
2.50742125984252
 30
0.0
 10
1.909523622047244
 20
2.50742125984252
 30
0.0
 10
1.909523622047244
 20
2.50742125984252
 30
0.0
 10
1.909523622047244
 20
2.50742125984252
 30
0.0
 10
1.916720472440945
 20
2.497799212598425
 30
0.0
 10
1.916720472440945
 20
2.497799212598425
 30
0.0
 10
1.916720472440945
 20
2.497799212598425
 30
0.0
 10
1.916720472440945
 20
2.497799212598425
 30
0.0
 10
1.922984251968504
 20
2.487488188976378
 30
0.0
 10
1.922984251968504
 20
2.487488188976378
 30
0.0
  0
SPLINE
  5
43
330
1F
100
AcDbEntity
  8
LAYER_1
 62
   253
100
AcDbSpline
210
0.0
220
0.0
230
1.0
 70
    11
 71
     3
 72
    44
 73
    40
 74
     0
 42
0.0000000001
 43
0.0000000001
 40
0.0
 40
0.0
 40
0.0
 40
0.0
 40
0.1
 40
0.1
 40
0.1
 40
0.1
 40
0.2
 40
0.2
 40
0.2
 40
0.2
 40
0.3
 40
0.3
 40
0.3
 40
0.3
 40
0.4
 40
0.4
 40
0.4
 40
0.4
 40
0.5
 40
0.5
 40
0.5
 40
0.5
 40
0.6
 40
0.6
 40
0.6
 40
0.6
 40
0.7
 40
0.7
 40
0.7
 40
0.7
 40
0.7999999999999999
 40
0.7999999999999999
 40
0.7999999999999999
 40
0.7999999999999999
 40
0.8999999999999999
 40
0.8999999999999999
 40
0.8999999999999999
 40
0.8999999999999999
 40
1.0
 40
1.0
 40
1.0
 40
1.0
 10
1.89257874015748
 20
2.524366141732283
 30
0.0
 10
1.89257874015748
 20
2.524366141732283
 30
0.0
 10
1.894818897637795
 20
3.277468503937008
 30
0.0
 10
1.894818897637795
 20
3.277468503937008
 30
0.0
 10
1.894818897637795
 20
3.277468503937008
 30
0.0
 10
1.894818897637795
 20
3.277468503937008
 30
0.0
 10
1.885196850393701
 20
3.284665354330709
 30
0.0
 10
1.885196850393701
 20
3.284665354330709
 30
0.0
 10
1.885196850393701
 20
3.284665354330709
 30
0.0
 10
1.885196850393701
 20
3.284665354330709
 30
0.0
 10
1.874885826771654
 20
3.290929133858268
 30
0.0
 10
1.874885826771654
 20
3.290929133858268
 30
0.0
 10
1.874885826771654
 20
3.290929133858268
 30
0.0
 10
1.874885826771654
 20
3.290929133858268
 30
0.0
 10
1.863964566929134
 20
3.296196850393701
 30
0.0
 10
1.863964566929134
 20
3.296196850393701
 30
0.0
 10
1.863964566929134
 20
3.296196850393701
 30
0.0
 10
1.863964566929134
 20
3.296196850393701
 30
0.0
 10
1.852476377952756
 20
3.300397637795276
 30
0.0
 10
1.852476377952756
 20
3.300397637795276
 30
0.0
 10
1.852476377952756
 20
3.300397637795276
 30
0.0
 10
1.852476377952756
 20
3.300397637795276
 30
0.0
 10
1.850236220472441
 20
2.547295275590551
 30
0.0
 10
1.850236220472441
 20
2.547295275590551
 30
0.0
 10
1.850236220472441
 20
2.547295275590551
 30
0.0
 10
1.850236220472441
 20
2.547295275590551
 30
0.0
 10
1.861724409448819
 20
2.543094488188976
 30
0.0
 10
1.861724409448819
 20
2.543094488188976
 30
0.0
 10
1.861724409448819
 20
2.543094488188976
 30
0.0
 10
1.861724409448819
 20
2.543094488188976
 30
0.0
 10
1.872645669291339
 20
2.537826771653543
 30
0.0
 10
1.872645669291339
 20
2.537826771653543
 30
0.0
 10
1.872645669291339
 20
2.537826771653543
 30
0.0
 10
1.872645669291339
 20
2.537826771653543
 30
0.0
 10
1.882956692913386
 20
2.531562992125985
 30
0.0
 10
1.882956692913386
 20
2.531562992125985
 30
0.0
 10
1.882956692913386
 20
2.531562992125985
 30
0.0
 10
1.882956692913386
 20
2.531562992125985
 30
0.0
 10
1.89257874015748
 20
2.524366141732283
 30
0.0
 10
1.89257874015748
 20
2.524366141732283
 30
0.0
  0
SPLINE
  5
44
330
1F
100
AcDbEntity
  8
LAYER_1
 62
   252
100
AcDbSpline
210
0.0
220
0.0
230
1.0
 70
    11
 71
     3
 72
    36
 73
    32
 74
     0
 42
0.0000000001
 43
0.0000000001
 40
0.0
 40
0.0
 40
0.0
 40
0.0
 40
0.125
 40
0.125
 40
0.125
 40
0.125
 40
0.25
 40
0.25
 40
0.25
 40
0.25
 40
0.375
 40
0.375
 40
0.375
 40
0.375
 40
0.5
 40
0.5
 40
0.5
 40
0.5
 40
0.625
 40
0.625
 40
0.625
 40
0.625
 40
0.75
 40
0.75
 40
0.75
 40
0.75
 40
0.875
 40
0.875
 40
0.875
 40
0.875
 40
1.0
 40
1.0
 40
1.0
 40
1.0
 10
1.850236220472441
 20
2.547295275590551
 30
0.0
 10
1.850236220472441
 20
2.547295275590551
 30
0.0
 10
1.852476377952756
 20
3.300397637795276
 30
0.0
 10
1.852476377952756
 20
3.300397637795276
 30
0.0
 10
1.852476377952756
 20
3.300397637795276
 30
0.0
 10
1.852476377952756
 20
3.300397637795276
 30
0.0
 10
1.8405
 20
3.30348031496063
 30
0.0
 10
1.8405
 20
3.30348031496063
 30
0.0
 10
1.8405
 20
3.30348031496063
 30
0.0
 10
1.8405
 20
3.30348031496063
 30
0.0
 10
1.828090551181103
 20
3.305374015748032
 30
0.0
 10
1.828090551181103
 20
3.305374015748032
 30
0.0
 10
1.828090551181103
 20
3.305374015748032
 30
0.0
 10
1.828090551181103
 20
3.305374015748032
 30
0.0
 10
1.815318897637795
 20
3.306023622047244
 30
0.0
 10
1.815318897637795
 20
3.306023622047244
 30
0.0
 10
1.815318897637795
 20
3.306023622047244
 30
0.0
 10
1.815318897637795
 20
3.306023622047244
 30
0.0
 10
1.81307874015748
 20
2.55292125984252
 30
0.0
 10
1.81307874015748
 20
2.55292125984252
 30
0.0
 10
1.81307874015748
 20
2.55292125984252
 30
0.0
 10
1.81307874015748
 20
2.55292125984252
 30
0.0
 10
1.825850393700788
 20
2.552271653543307
 30
0.0
 10
1.825850393700788
 20
2.552271653543307
 30
0.0
 10
1.825850393700788
 20
2.552271653543307
 30
0.0
 10
1.825850393700788
 20
2.552271653543307
 30
0.0
 10
1.838259842519685
 20
2.550377952755905
 30
0.0
 10
1.838259842519685
 20
2.550377952755905
 30
0.0
 10
1.838259842519685
 20
2.550377952755905
 30
0.0
 10
1.838259842519685
 20
2.550377952755905
 30
0.0
 10
1.850236220472441
 20
2.547295275590551
 30
0.0
 10
1.850236220472441
 20
2.547295275590551
 30
0.0
  0
SPLINE
  5
45
330
1F
100
AcDbEntity
  8
LAYER_1
 62
   252
100
AcDbSpline
210
0.0
220
0.0
230
1.0
 70
    11
 71
     3
 72
    44
 73
    40
 74
     0
 42
0.0000000001
 43
0.0000000001
 40
0.0
 40
0.0
 40
0.0
 40
0.0
 40
0.1
 40
0.1
 40
0.1
 40
0.1
 40
0.2
 40
0.2
 40
0.2
 40
0.2
 40
0.3
 40
0.3
 40
0.3
 40
0.3
 40
0.4
 40
0.4
 40
0.4
 40
0.4
 40
0.5
 40
0.5
 40
0.5
 40
0.5
 40
0.6
 40
0.6
 40
0.6
 40
0.6
 40
0.7
 40
0.7
 40
0.7
 40
0.7
 40
0.7999999999999999
 40
0.7999999999999999
 40
0.7999999999999999
 40
0.7999999999999999
 40
0.8999999999999999
 40
0.8999999999999999
 40
0.8999999999999999
 40
0.8999999999999999
 40
1.0
 40
1.0
 40
1.0
 40
1.0
 10
1.81307874015748
 20
2.55292125984252
 30
0.0
 10
1.81307874015748
 20
2.55292125984252
 30
0.0
 10
1.815318897637795
 20
3.306023622047244
 30
0.0
 10
1.815318897637795
 20
3.306023622047244
 30
0.0
 10
1.815318897637795
 20
3.306023622047244
 30
0.0
 10
1.815318897637795
 20
3.306023622047244
 30
0.0
 10
1.802535433070866
 20
3.305374015748032
 30
0.0
 10
1.802535433070866
 20
3.305374015748032
 30
0.0
 10
1.802535433070866
 20
3.305374015748032
 30
0.0
 10
1.802535433070866
 20
3.305374015748032
 30
0.0
 10
1.790125984251969
 20
3.30348031496063
 30
0.0
 10
1.790125984251969
 20
3.30348031496063
 30
0.0
 10
1.790125984251969
 20
3.30348031496063
 30
0.0
 10
1.790125984251969
 20
3.30348031496063
 30
0.0
 10
1.778145669291339
 20
3.300397637795276
 30
0.0
 10
1.778145669291339
 20
3.300397637795276
 30
0.0
 10
1.778145669291339
 20
3.300397637795276
 30
0.0
 10
1.778145669291339
 20
3.300397637795276
 30
0.0
 10
1.766665354330709
 20
3.296196850393701
 30
0.0
 10
1.766665354330709
 20
3.296196850393701
 30
0.0
 10
1.766665354330709
 20
3.296196850393701
 30
0.0
 10
1.766665354330709
 20
3.296196850393701
 30
0.0
 10
1.764425196850394
 20
2.543094488188976
 30
0.0
 10
1.764425196850394
 20
2.543094488188976
 30
0.0
 10
1.764425196850394
 20
2.543094488188976
 30
0.0
 10
1.764425196850394
 20
2.543094488188976
 30
0.0
 10
1.775905511811024
 20
2.547295275590551
 30
0.0
 10
1.775905511811024
 20
2.547295275590551
 30
0.0
 10
1.775905511811024
 20
2.547295275590551
 30
0.0
 10
1.775905511811024
 20
2.547295275590551
 30
0.0
 10
1.787885826771654
 20
2.550377952755905
 30
0.0
 10
1.787885826771654
 20
2.550377952755905
 30
0.0
 10
1.787885826771654
 20
2.550377952755905
 30
0.0
 10
1.787885826771654
 20
2.550377952755905
 30
0.0
 10
1.800295275590551
 20
2.552271653543307
 30
0.0
 10
1.800295275590551
 20
2.552271653543307
 30
0.0
 10
1.800295275590551
 20
2.552271653543307
 30
0.0
 10
1.800295275590551
 20
2.552271653543307
 30
0.0
 10
1.81307874015748
 20
2.55292125984252
 30
0.0
 10
1.81307874015748
 20
2.55292125984252
 30
0.0
  0
SPLINE
  5
46
330
1F
100
AcDbEntity
  8
LAYER_1
 62
   252
100
AcDbSpline
210
0.0
220
0.0
230
1.0
 70
    11
 71
     3
 72
    44
 73
    40
 74
     0
 42
0.0000000001
 43
0.0000000001
 40
0.0
 40
0.0
 40
0.0
 40
0.0
 40
0.1
 40
0.1
 40
0.1
 40
0.1
 40
0.2
 40
0.2
 40
0.2
 40
0.2
 40
0.3
 40
0.3
 40
0.3
 40
0.3
 40
0.4
 40
0.4
 40
0.4
 40
0.4
 40
0.5
 40
0.5
 40
0.5
 40
0.5
 40
0.6
 40
0.6
 40
0.6
 40
0.6
 40
0.7
 40
0.7
 40
0.7
 40
0.7
 40
0.7999999999999999
 40
0.7999999999999999
 40
0.7999999999999999
 40
0.7999999999999999
 40
0.8999999999999999
 40
0.8999999999999999
 40
0.8999999999999999
 40
0.8999999999999999
 40
1.0
 40
1.0
 40
1.0
 40
1.0
 10
1.764425196850394
 20
2.543094488188976
 30
0.0
 10
1.764425196850394
 20
2.543094488188976
 30
0.0
 10
1.766665354330709
 20
3.296196850393701
 30
0.0
 10
1.766665354330709
 20
3.296196850393701
 30
0.0
 10
1.766665354330709
 20
3.296196850393701
 30
0.0
 10
1.766665354330709
 20
3.296196850393701
 30
0.0
 10
1.755736220472441
 20
3.290929133858268
 30
0.0
 10
1.755736220472441
 20
3.290929133858268
 30
0.0
 10
1.755736220472441
 20
3.290929133858268
 30
0.0
 10
1.755736220472441
 20
3.290929133858268
 30
0.0
 10
1.745429133858268
 20
3.284665354330709
 30
0.0
 10
1.745429133858268
 20
3.284665354330709
 30
0.0
 10
1.745429133858268
 20
3.284665354330709
 30
0.0
 10
1.745429133858268
 20
3.284665354330709
 30
0.0
 10
1.735803149606299
 20
3.277468503937008
 30
0.0
 10
1.735803149606299
 20
3.277468503937008
 30
0.0
 10
1.735803149606299
 20
3.277468503937008
 30
0.0
 10
1.735803149606299
 20
3.277468503937008
 30
0.0
 10
1.726933070866142
 20
3.269405511811024
 30
0.0
 10
1.726933070866142
 20
3.269405511811024
 30
0.0
 10
1.726933070866142
 20
3.269405511811024
 30
0.0
 10
1.726933070866142
 20
3.269405511811024
 30
0.0
 10
1.724692913385827
 20
2.5163031496063
 30
0.0
 10
1.724692913385827
 20
2.5163031496063
 30
0.0
 10
1.724692913385827
 20
2.5163031496063
 30
0.0
 10
1.724692913385827
 20
2.5163031496063
 30
0.0
 10
1.733562992125984
 20
2.524366141732283
 30
0.0
 10
1.733562992125984
 20
2.524366141732283
 30
0.0
 10
1.733562992125984
 20
2.524366141732283
 30
0.0
 10
1.733562992125984
 20
2.524366141732283
 30
0.0
 10
1.743188976377953
 20
2.531562992125985
 30
0.0
 10
1.743188976377953
 20
2.531562992125985
 30
0.0
 10
1.743188976377953
 20
2.531562992125985
 30
0.0
 10
1.743188976377953
 20
2.531562992125985
 30
0.0
 10
1.753496062992126
 20
2.537826771653543
 30
0.0
 10
1.753496062992126
 20
2.537826771653543
 30
0.0
 10
1.753496062992126
 20
2.537826771653543
 30
0.0
 10
1.753496062992126
 20
2.537826771653543
 30
0.0
 10
1.764425196850394
 20
2.543094488188976
 30
0.0
 10
1.764425196850394
 20
2.543094488188976
 30
0.0
  0
SPLINE
  5
47
330
1F
100
AcDbEntity
  8
LAYER_1
 62
     8
100
AcDbSpline
210
0.0
220
0.0
230
1.0
 70
    11
 71
     3
 72
    44
 73
    40
 74
     0
 42
0.0000000001
 43
0.0000000001
 40
0.0
 40
0.0
 40
0.0
 40
0.0
 40
0.1
 40
0.1
 40
0.1
 40
0.1
 40
0.2
 40
0.2
 40
0.2
 40
0.2
 40
0.3
 40
0.3
 40
0.3
 40
0.3
 40
0.4
 40
0.4
 40
0.4
 40
0.4
 40
0.5
 40
0.5
 40
0.5
 40
0.5
 40
0.6
 40
0.6
 40
0.6
 40
0.6
 40
0.7
 40
0.7
 40
0.7
 40
0.7
 40
0.7999999999999999
 40
0.7999999999999999
 40
0.7999999999999999
 40
0.7999999999999999
 40
0.8999999999999999
 40
0.8999999999999999
 40
0.8999999999999999
 40
0.8999999999999999
 40
1.0
 40
1.0
 40
1.0
 40
1.0
 10
1.724692913385827
 20
2.5163031496063
 30
0.0
 10
1.724692913385827
 20
2.5163031496063
 30
0.0
 10
1.726933070866142
 20
3.269405511811024
 30
0.0
 10
1.726933070866142
 20
3.269405511811024
 30
0.0
 10
1.726933070866142
 20
3.269405511811024
 30
0.0
 10
1.726933070866142
 20
3.269405511811024
 30
0.0
 10
1.718858267716536
 20
3.260523622047244
 30
0.0
 10
1.718858267716536
 20
3.260523622047244
 30
0.0
 10
1.718858267716536
 20
3.260523622047244
 30
0.0
 10
1.718858267716536
 20
3.260523622047244
 30
0.0
 10
1.711665354330709
 20
3.25090157480315
 30
0.0
 10
1.711665354330709
 20
3.25090157480315
 30
0.0
 10
1.711665354330709
 20
3.25090157480315
 30
0.0
 10
1.711665354330709
 20
3.25090157480315
 30
0.0
 10
1.70540157480315
 20
3.240590551181103
 30
0.0
 10
1.70540157480315
 20
3.240590551181103
 30
0.0
 10
1.70540157480315
 20
3.240590551181103
 30
0.0
 10
1.70540157480315
 20
3.240590551181103
 30
0.0
 10
1.700141732283465
 20
3.229669291338583
 30
0.0
 10
1.700141732283465
 20
3.229669291338583
 30
0.0
 10
1.700141732283465
 20
3.229669291338583
 30
0.0
 10
1.700141732283465
 20
3.229669291338583
 30
0.0
 10
1.69790157480315
 20
2.476566929133858
 30
0.0
 10
1.69790157480315
 20
2.476566929133858
 30
0.0
 10
1.69790157480315
 20
2.476566929133858
 30
0.0
 10
1.69790157480315
 20
2.476566929133858
 30
0.0
 10
1.703161417322835
 20
2.487488188976378
 30
0.0
 10
1.703161417322835
 20
2.487488188976378
 30
0.0
 10
1.703161417322835
 20
2.487488188976378
 30
0.0
 10
1.703161417322835
 20
2.487488188976378
 30
0.0
 10
1.709425196850394
 20
2.497799212598425
 30
0.0
 10
1.709425196850394
 20
2.497799212598425
 30
0.0
 10
1.709425196850394
 20
2.497799212598425
 30
0.0
 10
1.709425196850394
 20
2.497799212598425
 30
0.0
 10
1.716618110236221
 20
2.50742125984252
 30
0.0
 10
1.716618110236221
 20
2.50742125984252
 30
0.0
 10
1.716618110236221
 20
2.50742125984252
 30
0.0
 10
1.716618110236221
 20
2.50742125984252
 30
0.0
 10
1.724692913385827
 20
2.5163031496063
 30
0.0
 10
1.724692913385827
 20
2.5163031496063
 30
0.0
  0
SPLINE
  5
48
330
1F
100
AcDbEntity
  8
LAYER_1
 62
   250
100
AcDbSpline
210
0.0
220
0.0
230
1.0
 70
    11
 71
     3
 72
    44
 73
    40
 74
     0
 42
0.0000000001
 43
0.0000000001
 40
0.0
 40
0.0
 40
0.0
 40
0.0
 40
0.1
 40
0.1
 40
0.1
 40
0.1
 40
0.2
 40
0.2
 40
0.2
 40
0.2
 40
0.3
 40
0.3
 40
0.3
 40
0.3
 40
0.4
 40
0.4
 40
0.4
 40
0.4
 40
0.5
 40
0.5
 40
0.5
 40
0.5
 40
0.6
 40
0.6
 40
0.6
 40
0.6
 40
0.7
 40
0.7
 40
0.7
 40
0.7
 40
0.7999999999999999
 40
0.7999999999999999
 40
0.7999999999999999
 40
0.7999999999999999
 40
0.8999999999999999
 40
0.8999999999999999
 40
0.8999999999999999
 40
0.8999999999999999
 40
1.0
 40
1.0
 40
1.0
 40
1.0
 10
1.69790157480315
 20
2.476566929133858
 30
0.0
 10
1.69790157480315
 20
2.476566929133858
 30
0.0
 10
1.700141732283465
 20
3.229669291338583
 30
0.0
 10
1.700141732283465
 20
3.229669291338583
 30
0.0
 10
1.700141732283465
 20
3.229669291338583
 30
0.0
 10
1.700141732283465
 20
3.229669291338583
 30
0.0
 10
1.695933070866142
 20
3.218181102362205
 30
0.0
 10
1.695933070866142
 20
3.218181102362205
 30
0.0
 10
1.695933070866142
 20
3.218181102362205
 30
0.0
 10
1.695933070866142
 20
3.218181102362205
 30
0.0
 10
1.692854330708661
 20
3.206204724409449
 30
0.0
 10
1.692854330708661
 20
3.206204724409449
 30
0.0
 10
1.692854330708661
 20
3.206204724409449
 30
0.0
 10
1.692854330708661
 20
3.206204724409449
 30
0.0
 10
1.69096062992126
 20
3.193795275590551
 30
0.0
 10
1.69096062992126
 20
3.193795275590551
 30
0.0
 10
1.69096062992126
 20
3.193795275590551
 30
0.0
 10
1.69096062992126
 20
3.193795275590551
 30
0.0
 10
1.690318897637795
 20
3.181023622047244
 30
0.0
 10
1.690318897637795
 20
3.181023622047244
 30
0.0
 10
1.690318897637795
 20
3.181023622047244
 30
0.0
 10
1.690318897637795
 20
3.181023622047244
 30
0.0
 10
1.68807874015748
 20
2.42792125984252
 30
0.0
 10
1.68807874015748
 20
2.42792125984252
 30
0.0
 10
1.68807874015748
 20
2.42792125984252
 30
0.0
 10
1.68807874015748
 20
2.42792125984252
 30
0.0
 10
1.688720472440945
 20
2.440692913385827
 30
0.0
 10
1.688720472440945
 20
2.440692913385827
 30
0.0
 10
1.688720472440945
 20
2.440692913385827
 30
0.0
 10
1.688720472440945
 20
2.440692913385827
 30
0.0
 10
1.690614173228347
 20
2.453102362204724
 30
0.0
 10
1.690614173228347
 20
2.453102362204724
 30
0.0
 10
1.690614173228347
 20
2.453102362204724
 30
0.0
 10
1.690614173228347
 20
2.453102362204724
 30
0.0
 10
1.693692913385827
 20
2.46507874015748
 30
0.0
 10
1.693692913385827
 20
2.46507874015748
 30
0.0
 10
1.693692913385827
 20
2.46507874015748
 30
0.0
 10
1.693692913385827
 20
2.46507874015748
 30
0.0
 10
1.69790157480315
 20
2.476566929133858
 30
0.0
 10
1.69790157480315
 20
2.476566929133858
 30
0.0
  0
SPLINE
  5
49
330
1F
100
AcDbEntity
  8
LAYER_1
 62
   250
100
AcDbSpline
210
0.0
220
0.0
230
1.0
 70
    11
 71
     3
 72
   260
 73
   256
 74
     0
 42
0.0000000001
 43
0.0000000001
 40
0.0
 40
0.0
 40
0.0
 40
0.0
 40
0.015625
 40
0.015625
 40
0.015625
 40
0.015625
 40
0.03125
 40
0.03125
 40
0.03125
 40
0.03125
 40
0.046875
 40
0.046875
 40
0.046875
 40
0.046875
 40
0.0625
 40
0.0625
 40
0.0625
 40
0.0625
 40
0.078125
 40
0.078125
 40
0.078125
 40
0.078125
 40
0.09375
 40
0.09375
 40
0.09375
 40
0.09375
 40
0.109375
 40
0.109375
 40
0.109375
 40
0.109375
 40
0.125
 40
0.125
 40
0.125
 40
0.125
 40
0.140625
 40
0.140625
 40
0.140625
 40
0.140625
 40
0.15625
 40
0.15625
 40
0.15625
 40
0.15625
 40
0.171875
 40
0.171875
 40
0.171875
 40
0.171875
 40
0.1875
 40
0.1875
 40
0.1875
 40
0.1875
 40
0.203125
 40
0.203125
 40
0.203125
 40
0.203125
 40
0.21875
 40
0.21875
 40
0.21875
 40
0.21875
 40
0.234375
 40
0.234375
 40
0.234375
 40
0.234375
 40
0.25
 40
0.25
 40
0.25
 40
0.25
 40
0.265625
 40
0.265625
 40
0.265625
 40
0.265625
 40
0.28125
 40
0.28125
 40
0.28125
 40
0.28125
 40
0.296875
 40
0.296875
 40
0.296875
 40
0.296875
 40
0.3125
 40
0.3125
 40
0.3125
 40
0.3125
 40
0.328125
 40
0.328125
 40
0.328125
 40
0.328125
 40
0.34375
 40
0.34375
 40
0.34375
 40
0.34375
 40
0.359375
 40
0.359375
 40
0.359375
 40
0.359375
 40
0.375
 40
0.375
 40
0.375
 40
0.375
 40
0.390625
 40
0.390625
 40
0.390625
 40
0.390625
 40
0.40625
 40
0.40625
 40
0.40625
 40
0.40625
 40
0.421875
 40
0.421875
 40
0.421875
 40
0.421875
 40
0.4375
 40
0.4375
 40
0.4375
 40
0.4375
 40
0.453125
 40
0.453125
 40
0.453125
 40
0.453125
 40
0.46875
 40
0.46875
 40
0.46875
 40
0.46875
 40
0.484375
 40
0.484375
 40
0.484375
 40
0.484375
 40
0.5
 40
0.5
 40
0.5
 40
0.5
 40
0.515625
 40
0.515625
 40
0.515625
 40
0.515625
 40
0.53125
 40
0.53125
 40
0.53125
 40
0.53125
 40
0.546875
 40
0.546875
 40
0.546875
 40
0.546875
 40
0.5625
 40
0.5625
 40
0.5625
 40
0.5625
 40
0.578125
 40
0.578125
 40
0.578125
 40
0.578125
 40
0.59375
 40
0.59375
 40
0.59375
 40
0.59375
 40
0.609375
 40
0.609375
 40
0.609375
 40
0.609375
 40
0.625
 40
0.625
 40
0.625
 40
0.625
 40
0.640625
 40
0.640625
 40
0.640625
 40
0.640625
 40
0.65625
 40
0.65625
 40
0.65625
 40
0.65625
 40
0.671875
 40
0.671875
 40
0.671875
 40
0.671875
 40
0.6875
 40
0.6875
 40
0.6875
 40
0.6875
 40
0.703125
 40
0.703125
 40
0.703125
 40
0.703125
 40
0.71875
 40
0.71875
 40
0.71875
 40
0.71875
 40
0.734375
 40
0.734375
 40
0.734375
 40
0.734375
 40
0.75
 40
0.75
 40
0.75
 40
0.75
 40
0.765625
 40
0.765625
 40
0.765625
 40
0.765625
 40
0.78125
 40
0.78125
 40
0.78125
 40
0.78125
 40
0.796875
 40
0.796875
 40
0.796875
 40
0.796875
 40
0.8125
 40
0.8125
 40
0.8125
 40
0.8125
 40
0.828125
 40
0.828125
 40
0.828125
 40
0.828125
 40
0.84375
 40
0.84375
 40
0.84375
 40
0.84375
 40
0.859375
 40
0.859375
 40
0.859375
 40
0.859375
 40
0.875
 40
0.875
 40
0.875
 40
0.875
 40
0.890625
 40
0.890625
 40
0.890625
 40
0.890625
 40
0.90625
 40
0.90625
 40
0.90625
 40
0.90625
 40
0.921875
 40
0.921875
 40
0.921875
 40
0.921875
 40
0.9375
 40
0.9375
 40
0.9375
 40
0.9375
 40
0.953125
 40
0.953125
 40
0.953125
 40
0.953125
 40
0.96875
 40
0.96875
 40
0.96875
 40
0.96875
 40
0.984375
 40
0.984375
 40
0.984375
 40
0.984375
 40
1.0
 40
1.0
 40
1.0
 40
1.0
 10
1.937429133858268
 20
2.440692913385827
 30
0.0
 10
1.937429133858268
 20
2.440692913385827
 30
0.0
 10
1.939669291338583
 20
3.193795275590551
 30
0.0
 10
1.939669291338583
 20
3.193795275590551
 30
0.0
 10
1.939669291338583
 20
3.193795275590551
 30
0.0
 10
1.939669291338583
 20
3.193795275590551
 30
0.0
 10
1.937775590551181
 20
3.206204724409449
 30
0.0
 10
1.937775590551181
 20
3.206204724409449
 30
0.0
 10
1.937775590551181
 20
3.206204724409449
 30
0.0
 10
1.937775590551181
 20
3.206204724409449
 30
0.0
 10
1.934692913385827
 20
3.218181102362205
 30
0.0
 10
1.934692913385827
 20
3.218181102362205
 30
0.0
 10
1.934692913385827
 20
3.218181102362205
 30
0.0
 10
1.934692913385827
 20
3.218181102362205
 30
0.0
 10
1.930492125984252
 20
3.229669291338583
 30
0.0
 10
1.930492125984252
 20
3.229669291338583
 30
0.0
 10
1.930492125984252
 20
3.229669291338583
 30
0.0
 10
1.930492125984252
 20
3.229669291338583
 30
0.0
 10
1.925224409448819
 20
3.240590551181103
 30
0.0
 10
1.925224409448819
 20
3.240590551181103
 30
0.0
 10
1.925224409448819
 20
3.240590551181103
 30
0.0
 10
1.925224409448819
 20
3.240590551181103
 30
0.0
 10
1.91896062992126
 20
3.25090157480315
 30
0.0
 10
1.91896062992126
 20
3.25090157480315
 30
0.0
 10
1.91896062992126
 20
3.25090157480315
 30
0.0
 10
1.91896062992126
 20
3.25090157480315
 30
0.0
 10
1.911763779527559
 20
3.260523622047244
 30
0.0
 10
1.911763779527559
 20
3.260523622047244
 30
0.0
 10
1.911763779527559
 20
3.260523622047244
 30
0.0
 10
1.911763779527559
 20
3.260523622047244
 30
0.0
 10
1.903700787401575
 20
3.269405511811024
 30
0.0
 10
1.903700787401575
 20
3.269405511811024
 30
0.0
 10
1.903700787401575
 20
3.269405511811024
 30
0.0
 10
1.903700787401575
 20
3.269405511811024
 30
0.0
 10
1.894818897637795
 20
3.277468503937008
 30
0.0
 10
1.894818897637795
 20
3.277468503937008
 30
0.0
 10
1.894818897637795
 20
3.277468503937008
 30
0.0
 10
1.894818897637795
 20
3.277468503937008
 30
0.0
 10
1.885196850393701
 20
3.284665354330709
 30
0.0
 10
1.885196850393701
 20
3.284665354330709
 30
0.0
 10
1.885196850393701
 20
3.284665354330709
 30
0.0
 10
1.885196850393701
 20
3.284665354330709
 30
0.0
 10
1.874885826771654
 20
3.290929133858268
 30
0.0
 10
1.874885826771654
 20
3.290929133858268
 30
0.0
 10
1.874885826771654
 20
3.290929133858268
 30
0.0
 10
1.874885826771654
 20
3.290929133858268
 30
0.0
 10
1.863964566929134
 20
3.296196850393701
 30
0.0
 10
1.863964566929134
 20
3.296196850393701
 30
0.0
 10
1.863964566929134
 20
3.296196850393701
 30
0.0
 10
1.863964566929134
 20
3.296196850393701
 30
0.0
 10
1.852476377952756
 20
3.300397637795276
 30
0.0
 10
1.852476377952756
 20
3.300397637795276
 30
0.0
 10
1.852476377952756
 20
3.300397637795276
 30
0.0
 10
1.852476377952756
 20
3.300397637795276
 30
0.0
 10
1.8405
 20
3.30348031496063
 30
0.0
 10
1.8405
 20
3.30348031496063
 30
0.0
 10
1.8405
 20
3.30348031496063
 30
0.0
 10
1.8405
 20
3.30348031496063
 30
0.0
 10
1.828090551181103
 20
3.305374015748032
 30
0.0
 10
1.828090551181103
 20
3.305374015748032
 30
0.0
 10
1.828090551181103
 20
3.305374015748032
 30
0.0
 10
1.828090551181103
 20
3.305374015748032
 30
0.0
 10
1.815318897637795
 20
3.306023622047244
 30
0.0
 10
1.815318897637795
 20
3.306023622047244
 30
0.0
 10
1.815318897637795
 20
3.306023622047244
 30
0.0
 10
1.815318897637795
 20
3.306023622047244
 30
0.0
 10
1.802535433070866
 20
3.305374015748032
 30
0.0
 10
1.802535433070866
 20
3.305374015748032
 30
0.0
 10
1.802535433070866
 20
3.305374015748032
 30
0.0
 10
1.802535433070866
 20
3.305374015748032
 30
0.0
 10
1.790125984251969
 20
3.30348031496063
 30
0.0
 10
1.790125984251969
 20
3.30348031496063
 30
0.0
 10
1.790125984251969
 20
3.30348031496063
 30
0.0
 10
1.790125984251969
 20
3.30348031496063
 30
0.0
 10
1.778145669291339
 20
3.300397637795276
 30
0.0
 10
1.778145669291339
 20
3.300397637795276
 30
0.0
 10
1.778145669291339
 20
3.300397637795276
 30
0.0
 10
1.778145669291339
 20
3.300397637795276
 30
0.0
 10
1.766665354330709
 20
3.296196850393701
 30
0.0
 10
1.766665354330709
 20
3.296196850393701
 30
0.0
 10
1.766665354330709
 20
3.296196850393701
 30
0.0
 10
1.766665354330709
 20
3.296196850393701
 30
0.0
 10
1.755736220472441
 20
3.290929133858268
 30
0.0
 10
1.755736220472441
 20
3.290929133858268
 30
0.0
 10
1.755736220472441
 20
3.290929133858268
 30
0.0
 10
1.755736220472441
 20
3.290929133858268
 30
0.0
 10
1.745429133858268
 20
3.284665354330709
 30
0.0
 10
1.745429133858268
 20
3.284665354330709
 30
0.0
 10
1.745429133858268
 20
3.284665354330709
 30
0.0
 10
1.745429133858268
 20
3.284665354330709
 30
0.0
 10
1.735803149606299
 20
3.277468503937008
 30
0.0
 10
1.735803149606299
 20
3.277468503937008
 30
0.0
 10
1.735803149606299
 20
3.277468503937008
 30
0.0
 10
1.735803149606299
 20
3.277468503937008
 30
0.0
 10
1.726933070866142
 20
3.269405511811024
 30
0.0
 10
1.726933070866142
 20
3.269405511811024
 30
0.0
 10
1.726933070866142
 20
3.269405511811024
 30
0.0
 10
1.726933070866142
 20
3.269405511811024
 30
0.0
 10
1.718858267716536
 20
3.260523622047244
 30
0.0
 10
1.718858267716536
 20
3.260523622047244
 30
0.0
 10
1.718858267716536
 20
3.260523622047244
 30
0.0
 10
1.718858267716536
 20
3.260523622047244
 30
0.0
 10
1.711665354330709
 20
3.25090157480315
 30
0.0
 10
1.711665354330709
 20
3.25090157480315
 30
0.0
 10
1.711665354330709
 20
3.25090157480315
 30
0.0
 10
1.711665354330709
 20
3.25090157480315
 30
0.0
 10
1.70540157480315
 20
3.240590551181103
 30
0.0
 10
1.70540157480315
 20
3.240590551181103
 30
0.0
 10
1.70540157480315
 20
3.240590551181103
 30
0.0
 10
1.70540157480315
 20
3.240590551181103
 30
0.0
 10
1.700141732283465
 20
3.229669291338583
 30
0.0
 10
1.700141732283465
 20
3.229669291338583
 30
0.0
 10
1.700141732283465
 20
3.229669291338583
 30
0.0
 10
1.700141732283465
 20
3.229669291338583
 30
0.0
 10
1.695933070866142
 20
3.218181102362205
 30
0.0
 10
1.695933070866142
 20
3.218181102362205
 30
0.0
 10
1.695933070866142
 20
3.218181102362205
 30
0.0
 10
1.695933070866142
 20
3.218181102362205
 30
0.0
 10
1.692854330708661
 20
3.206204724409449
 30
0.0
 10
1.692854330708661
 20
3.206204724409449
 30
0.0
 10
1.692854330708661
 20
3.206204724409449
 30
0.0
 10
1.692854330708661
 20
3.206204724409449
 30
0.0
 10
1.69096062992126
 20
3.193795275590551
 30
0.0
 10
1.69096062992126
 20
3.193795275590551
 30
0.0
 10
1.69096062992126
 20
3.193795275590551
 30
0.0
 10
1.69096062992126
 20
3.193795275590551
 30
0.0
 10
1.690318897637795
 20
3.181023622047244
 30
0.0
 10
1.690318897637795
 20
3.181023622047244
 30
0.0
 10
1.690318897637795
 20
3.181023622047244
 30
0.0
 10
1.690318897637795
 20
3.181023622047244
 30
0.0
 10
1.68807874015748
 20
2.42792125984252
 30
0.0
 10
1.68807874015748
 20
2.42792125984252
 30
0.0
 10
1.68807874015748
 20
2.42792125984252
 30
0.0
 10
1.68807874015748
 20
2.42792125984252
 30
0.0
 10
1.688720472440945
 20
2.440692913385827
 30
0.0
 10
1.688720472440945
 20
2.440692913385827
 30
0.0
 10
1.688720472440945
 20
2.440692913385827
 30
0.0
 10
1.688720472440945
 20
2.440692913385827
 30
0.0
 10
1.690614173228347
 20
2.453102362204724
 30
0.0
 10
1.690614173228347
 20
2.453102362204724
 30
0.0
 10
1.690614173228347
 20
2.453102362204724
 30
0.0
 10
1.690614173228347
 20
2.453102362204724
 30
0.0
 10
1.693692913385827
 20
2.46507874015748
 30
0.0
 10
1.693692913385827
 20
2.46507874015748
 30
0.0
 10
1.693692913385827
 20
2.46507874015748
 30
0.0
 10
1.693692913385827
 20
2.46507874015748
 30
0.0
 10
1.69790157480315
 20
2.476566929133858
 30
0.0
 10
1.69790157480315
 20
2.476566929133858
 30
0.0
 10
1.69790157480315
 20
2.476566929133858
 30
0.0
 10
1.69790157480315
 20
2.476566929133858
 30
0.0
 10
1.703161417322835
 20
2.487488188976378
 30
0.0
 10
1.703161417322835
 20
2.487488188976378
 30
0.0
 10
1.703161417322835
 20
2.487488188976378
 30
0.0
 10
1.703161417322835
 20
2.487488188976378
 30
0.0
 10
1.709425196850394
 20
2.497799212598425
 30
0.0
 10
1.709425196850394
 20
2.497799212598425
 30
0.0
 10
1.709425196850394
 20
2.497799212598425
 30
0.0
 10
1.709425196850394
 20
2.497799212598425
 30
0.0
 10
1.716618110236221
 20
2.50742125984252
 30
0.0
 10
1.716618110236221
 20
2.50742125984252
 30
0.0
 10
1.716618110236221
 20
2.50742125984252
 30
0.0
 10
1.716618110236221
 20
2.50742125984252
 30
0.0
 10
1.724692913385827
 20
2.5163031496063
 30
0.0
 10
1.724692913385827
 20
2.5163031496063
 30
0.0
 10
1.724692913385827
 20
2.5163031496063
 30
0.0
 10
1.724692913385827
 20
2.5163031496063
 30
0.0
 10
1.733562992125984
 20
2.524366141732283
 30
0.0
 10
1.733562992125984
 20
2.524366141732283
 30
0.0
 10
1.733562992125984
 20
2.524366141732283
 30
0.0
 10
1.733562992125984
 20
2.524366141732283
 30
0.0
 10
1.743188976377953
 20
2.531562992125985
 30
0.0
 10
1.743188976377953
 20
2.531562992125985
 30
0.0
 10
1.743188976377953
 20
2.531562992125985
 30
0.0
 10
1.743188976377953
 20
2.531562992125985
 30
0.0
 10
1.753496062992126
 20
2.537826771653543
 30
0.0
 10
1.753496062992126
 20
2.537826771653543
 30
0.0
 10
1.753496062992126
 20
2.537826771653543
 30
0.0
 10
1.753496062992126
 20
2.537826771653543
 30
0.0
 10
1.764425196850394
 20
2.543094488188976
 30
0.0
 10
1.764425196850394
 20
2.543094488188976
 30
0.0
 10
1.764425196850394
 20
2.543094488188976
 30
0.0
 10
1.764425196850394
 20
2.543094488188976
 30
0.0
 10
1.775905511811024
 20
2.547295275590551
 30
0.0
 10
1.775905511811024
 20
2.547295275590551
 30
0.0
 10
1.775905511811024
 20
2.547295275590551
 30
0.0
 10
1.775905511811024
 20
2.547295275590551
 30
0.0
 10
1.787885826771654
 20
2.550377952755905
 30
0.0
 10
1.787885826771654
 20
2.550377952755905
 30
0.0
 10
1.787885826771654
 20
2.550377952755905
 30
0.0
 10
1.787885826771654
 20
2.550377952755905
 30
0.0
 10
1.800295275590551
 20
2.552271653543307
 30
0.0
 10
1.800295275590551
 20
2.552271653543307
 30
0.0
 10
1.800295275590551
 20
2.552271653543307
 30
0.0
 10
1.800295275590551
 20
2.552271653543307
 30
0.0
 10
1.81307874015748
 20
2.55292125984252
 30
0.0
 10
1.81307874015748
 20
2.55292125984252
 30
0.0
 10
1.81307874015748
 20
2.55292125984252
 30
0.0
 10
1.81307874015748
 20
2.55292125984252
 30
0.0
 10
1.825850393700788
 20
2.552271653543307
 30
0.0
 10
1.825850393700788
 20
2.552271653543307
 30
0.0
 10
1.825850393700788
 20
2.552271653543307
 30
0.0
 10
1.825850393700788
 20
2.552271653543307
 30
0.0
 10
1.838259842519685
 20
2.550377952755905
 30
0.0
 10
1.838259842519685
 20
2.550377952755905
 30
0.0
 10
1.838259842519685
 20
2.550377952755905
 30
0.0
 10
1.838259842519685
 20
2.550377952755905
 30
0.0
 10
1.850236220472441
 20
2.547295275590551
 30
0.0
 10
1.850236220472441
 20
2.547295275590551
 30
0.0
 10
1.850236220472441
 20
2.547295275590551
 30
0.0
 10
1.850236220472441
 20
2.547295275590551
 30
0.0
 10
1.861724409448819
 20
2.543094488188976
 30
0.0
 10
1.861724409448819
 20
2.543094488188976
 30
0.0
 10
1.861724409448819
 20
2.543094488188976
 30
0.0
 10
1.861724409448819
 20
2.543094488188976
 30
0.0
 10
1.872645669291339
 20
2.537826771653543
 30
0.0
 10
1.872645669291339
 20
2.537826771653543
 30
0.0
 10
1.872645669291339
 20
2.537826771653543
 30
0.0
 10
1.872645669291339
 20
2.537826771653543
 30
0.0
 10
1.882956692913386
 20
2.531562992125985
 30
0.0
 10
1.882956692913386
 20
2.531562992125985
 30
0.0
 10
1.882956692913386
 20
2.531562992125985
 30
0.0
 10
1.882956692913386
 20
2.531562992125985
 30
0.0
 10
1.89257874015748
 20
2.524366141732283
 30
0.0
 10
1.89257874015748
 20
2.524366141732283
 30
0.0
 10
1.89257874015748
 20
2.524366141732283
 30
0.0
 10
1.89257874015748
 20
2.524366141732283
 30
0.0
 10
1.90146062992126
 20
2.5163031496063
 30
0.0
 10
1.90146062992126
 20
2.5163031496063
 30
0.0
 10
1.90146062992126
 20
2.5163031496063
 30
0.0
 10
1.90146062992126
 20
2.5163031496063
 30
0.0
 10
1.909523622047244
 20
2.50742125984252
 30
0.0
 10
1.909523622047244
 20
2.50742125984252
 30
0.0
 10
1.909523622047244
 20
2.50742125984252
 30
0.0
 10
1.909523622047244
 20
2.50742125984252
 30
0.0
 10
1.916720472440945
 20
2.497799212598425
 30
0.0
 10
1.916720472440945
 20
2.497799212598425
 30
0.0
 10
1.916720472440945
 20
2.497799212598425
 30
0.0
 10
1.916720472440945
 20
2.497799212598425
 30
0.0
 10
1.922984251968504
 20
2.487488188976378
 30
0.0
 10
1.922984251968504
 20
2.487488188976378
 30
0.0
 10
1.922984251968504
 20
2.487488188976378
 30
0.0
 10
1.922984251968504
 20
2.487488188976378
 30
0.0
 10
1.928251968503937
 20
2.476566929133858
 30
0.0
 10
1.928251968503937
 20
2.476566929133858
 30
0.0
 10
1.928251968503937
 20
2.476566929133858
 30
0.0
 10
1.928251968503937
 20
2.476566929133858
 30
0.0
 10
1.932452755905512
 20
2.46507874015748
 30
0.0
 10
1.932452755905512
 20
2.46507874015748
 30
0.0
 10
1.932452755905512
 20
2.46507874015748
 30
0.0
 10
1.932452755905512
 20
2.46507874015748
 30
0.0
 10
1.935535433070866
 20
2.453102362204724
 30
0.0
 10
1.935535433070866
 20
2.453102362204724
 30
0.0
 10
1.935535433070866
 20
2.453102362204724
 30
0.0
 10
1.935535433070866
 20
2.453102362204724
 30
0.0
 10
1.937429133858268
 20
2.440692913385827
 30
0.0
 10
1.937429133858268
 20
2.440692913385827
 30
0.0
  0
SPLINE
  5
4A
330
1F
100
AcDbEntity
  8
LAYER_1
 62
   252
100
AcDbSpline
210
0.0
220
0.0
230
1.0
 70
    11
 71
     3
 72
    20
 73
    16
 74
     0
 42
0.0000000001
 43
0.0000000001
 40
0.0
 40
0.0
 40
0.0
 40
0.0
 40
0.25
 40
0.25
 40
0.25
 40
0.25
 40
0.5
 40
0.5
 40
0.5
 40
0.5
 40
0.75
 40
0.75
 40
0.75
 40
0.75
 40
1.0
 40
1.0
 40
1.0
 40
1.0
 10
1.68807874015748
 20
2.42792125984252
 30
0.0
 10
1.68807874015748
 20
2.42792125984252
 30
0.0
 10
1.690318897637795
 20
3.181023622047244
 30
0.0
 10
1.690318897637795
 20
3.181023622047244
 30
0.0
 10
1.690318897637795
 20
3.181023622047244
 30
0.0
 10
1.690318897637795
 20
3.181023622047244
 30
0.0
 10
-1.808334645669292
 20
3.181023622047244
 30
0.0
 10
-1.808334645669292
 20
3.181023622047244
 30
0.0
 10
-1.808334645669292
 20
3.181023622047244
 30
0.0
 10
-1.808334645669292
 20
3.181023622047244
 30
0.0
 10
-1.810574803149606
 20
2.42792125984252
 30
0.0
 10
-1.810574803149606
 20
2.42792125984252
 30
0.0
 10
-1.810574803149606
 20
2.42792125984252
 30
0.0
 10
-1.810574803149606
 20
2.42792125984252
 30
0.0
 10
1.68807874015748
 20
2.42792125984252
 30
0.0
 10
1.68807874015748
 20
2.42792125984252
 30
0.0
  0
SPLINE
  5
4B
330
1F
100
AcDbEntity
  8
LAYER_1
 62
   250
100
AcDbSpline
210
0.0
220
0.0
230
1.0
 70
    11
 71
     3
 72
    20
 73
    16
 74
     0
 42
0.0000000001
 43
0.0000000001
 40
0.0
 40
0.0
 40
0.0
 40
0.0
 40
0.25
 40
0.25
 40
0.25
 40
0.25
 40
0.5
 40
0.5
 40
0.5
 40
0.5
 40
0.75
 40
0.75
 40
0.75
 40
0.75
 40
1.0
 40
1.0
 40
1.0
 40
1.0
 10
1.68807874015748
 20
2.42792125984252
 30
0.0
 10
1.68807874015748
 20
2.42792125984252
 30
0.0
 10
1.690318897637795
 20
3.181023622047244
 30
0.0
 10
1.690318897637795
 20
3.181023622047244
 30
0.0
 10
1.690318897637795
 20
3.181023622047244
 30
0.0
 10
1.690318897637795
 20
3.181023622047244
 30
0.0
 10
-1.808334645669292
 20
3.181023622047244
 30
0.0
 10
-1.808334645669292
 20
3.181023622047244
 30
0.0
 10
-1.808334645669292
 20
3.181023622047244
 30
0.0
 10
-1.808334645669292
 20
3.181023622047244
 30
0.0
 10
-1.810574803149606
 20
2.42792125984252
 30
0.0
 10
-1.810574803149606
 20
2.42792125984252
 30
0.0
 10
-1.810574803149606
 20
2.42792125984252
 30
0.0
 10
-1.810574803149606
 20
2.42792125984252
 30
0.0
 10
1.68807874015748
 20
2.42792125984252
 30
0.0
 10
1.68807874015748
 20
2.42792125984252
 30
0.0
  0
SPLINE
  5
4C
330
1F
100
AcDbEntity
  8
LAYER_1
 62
   252
100
AcDbSpline
210
0.0
220
0.0
230
1.0
 70
    11
 71
     3
 72
    44
 73
    40
 74
     0
 42
0.0000000001
 43
0.0000000001
 40
0.0
 40
0.0
 40
0.0
 40
0.0
 40
0.1
 40
0.1
 40
0.1
 40
0.1
 40
0.2
 40
0.2
 40
0.2
 40
0.2
 40
0.3
 40
0.3
 40
0.3
 40
0.3
 40
0.4
 40
0.4
 40
0.4
 40
0.4
 40
0.5
 40
0.5
 40
0.5
 40
0.5
 40
0.6
 40
0.6
 40
0.6
 40
0.6
 40
0.7
 40
0.7
 40
0.7
 40
0.7
 40
0.7999999999999999
 40
0.7999999999999999
 40
0.7999999999999999
 40
0.7999999999999999
 40
0.8999999999999999
 40
0.8999999999999999
 40
0.8999999999999999
 40
0.8999999999999999
 40
1.0
 40
1.0
 40
1.0
 40
1.0
 10
-1.810574803149606
 20
2.42792125984252
 30
0.0
 10
-1.810574803149606
 20
2.42792125984252
 30
0.0
 10
-1.808334645669292
 20
3.181023622047244
 30
0.0
 10
-1.808334645669292
 20
3.181023622047244
 30
0.0
 10
-1.808334645669292
 20
3.181023622047244
 30
0.0
 10
-1.808334645669292
 20
3.181023622047244
 30
0.0
 10
-1.808976377952756
 20
3.193795275590551
 30
0.0
 10
-1.808976377952756
 20
3.193795275590551
 30
0.0
 10
-1.808976377952756
 20
3.193795275590551
 30
0.0
 10
-1.808976377952756
 20
3.193795275590551
 30
0.0
 10
-1.810870078740158
 20
3.206204724409449
 30
0.0
 10
-1.810870078740158
 20
3.206204724409449
 30
0.0
 10
-1.810870078740158
 20
3.206204724409449
 30
0.0
 10
-1.810870078740158
 20
3.206204724409449
 30
0.0
 10
-1.813948818897638
 20
3.218181102362205
 30
0.0
 10
-1.813948818897638
 20
3.218181102362205
 30
0.0
 10
-1.813948818897638
 20
3.218181102362205
 30
0.0
 10
-1.813948818897638
 20
3.218181102362205
 30
0.0
 10
-1.818157480314961
 20
3.229669291338583
 30
0.0
 10
-1.818157480314961
 20
3.229669291338583
 30
0.0
 10
-1.818157480314961
 20
3.229669291338583
 30
0.0
 10
-1.818157480314961
 20
3.229669291338583
 30
0.0
 10
-1.820397637795276
 20
2.476566929133858
 30
0.0
 10
-1.820397637795276
 20
2.476566929133858
 30
0.0
 10
-1.820397637795276
 20
2.476566929133858
 30
0.0
 10
-1.820397637795276
 20
2.476566929133858
 30
0.0
 10
-1.816188976377953
 20
2.46507874015748
 30
0.0
 10
-1.816188976377953
 20
2.46507874015748
 30
0.0
 10
-1.816188976377953
 20
2.46507874015748
 30
0.0
 10
-1.816188976377953
 20
2.46507874015748
 30
0.0
 10
-1.813110236220473
 20
2.453102362204724
 30
0.0
 10
-1.813110236220473
 20
2.453102362204724
 30
0.0
 10
-1.813110236220473
 20
2.453102362204724
 30
0.0
 10
-1.813110236220473
 20
2.453102362204724
 30
0.0
 10
-1.811216535433071
 20
2.440692913385827
 30
0.0
 10
-1.811216535433071
 20
2.440692913385827
 30
0.0
 10
-1.811216535433071
 20
2.440692913385827
 30
0.0
 10
-1.811216535433071
 20
2.440692913385827
 30
0.0
 10
-1.810574803149606
 20
2.42792125984252
 30
0.0
 10
-1.810574803149606
 20
2.42792125984252
 30
0.0
  0
SPLINE
  5
4D
330
1F
100
AcDbEntity
  8
LAYER_1
 62
   253
100
AcDbSpline
210
0.0
220
0.0
230
1.0
 70
    11
 71
     3
 72
    44
 73
    40
 74
     0
 42
0.0000000001
 43
0.0000000001
 40
0.0
 40
0.0
 40
0.0
 40
0.0
 40
0.1
 40
0.1
 40
0.1
 40
0.1
 40
0.2
 40
0.2
 40
0.2
 40
0.2
 40
0.3
 40
0.3
 40
0.3
 40
0.3
 40
0.4
 40
0.4
 40
0.4
 40
0.4
 40
0.5
 40
0.5
 40
0.5
 40
0.5
 40
0.6
 40
0.6
 40
0.6
 40
0.6
 40
0.7
 40
0.7
 40
0.7
 40
0.7
 40
0.7999999999999999
 40
0.7999999999999999
 40
0.7999999999999999
 40
0.7999999999999999
 40
0.8999999999999999
 40
0.8999999999999999
 40
0.8999999999999999
 40
0.8999999999999999
 40
1.0
 40
1.0
 40
1.0
 40
1.0
 10
-1.820397637795276
 20
2.476566929133858
 30
0.0
 10
-1.820397637795276
 20
2.476566929133858
 30
0.0
 10
-1.818157480314961
 20
3.229669291338583
 30
0.0
 10
-1.818157480314961
 20
3.229669291338583
 30
0.0
 10
-1.818157480314961
 20
3.229669291338583
 30
0.0
 10
-1.818157480314961
 20
3.229669291338583
 30
0.0
 10
-1.823417322834646
 20
3.240590551181103
 30
0.0
 10
-1.823417322834646
 20
3.240590551181103
 30
0.0
 10
-1.823417322834646
 20
3.240590551181103
 30
0.0
 10
-1.823417322834646
 20
3.240590551181103
 30
0.0
 10
-1.829681102362205
 20
3.25090157480315
 30
0.0
 10
-1.829681102362205
 20
3.25090157480315
 30
0.0
 10
-1.829681102362205
 20
3.25090157480315
 30
0.0
 10
-1.829681102362205
 20
3.25090157480315
 30
0.0
 10
-1.836874015748032
 20
3.260523622047244
 30
0.0
 10
-1.836874015748032
 20
3.260523622047244
 30
0.0
 10
-1.836874015748032
 20
3.260523622047244
 30
0.0
 10
-1.836874015748032
 20
3.260523622047244
 30
0.0
 10
-1.844948818897638
 20
3.269405511811024
 30
0.0
 10
-1.844948818897638
 20
3.269405511811024
 30
0.0
 10
-1.844948818897638
 20
3.269405511811024
 30
0.0
 10
-1.844948818897638
 20
3.269405511811024
 30
0.0
 10
-1.847188976377953
 20
2.5163031496063
 30
0.0
 10
-1.847188976377953
 20
2.5163031496063
 30
0.0
 10
-1.847188976377953
 20
2.5163031496063
 30
0.0
 10
-1.847188976377953
 20
2.5163031496063
 30
0.0
 10
-1.839114173228347
 20
2.50742125984252
 30
0.0
 10
-1.839114173228347
 20
2.50742125984252
 30
0.0
 10
-1.839114173228347
 20
2.50742125984252
 30
0.0
 10
-1.839114173228347
 20
2.50742125984252
 30
0.0
 10
-1.83192125984252
 20
2.497799212598425
 30
0.0
 10
-1.83192125984252
 20
2.497799212598425
 30
0.0
 10
-1.83192125984252
 20
2.497799212598425
 30
0.0
 10
-1.83192125984252
 20
2.497799212598425
 30
0.0
 10
-1.825657480314961
 20
2.487488188976378
 30
0.0
 10
-1.825657480314961
 20
2.487488188976378
 30
0.0
 10
-1.825657480314961
 20
2.487488188976378
 30
0.0
 10
-1.825657480314961
 20
2.487488188976378
 30
0.0
 10
-1.820397637795276
 20
2.476566929133858
 30
0.0
 10
-1.820397637795276
 20
2.476566929133858
 30
0.0
  0
SPLINE
  5
4E
330
1F
100
AcDbEntity
  8
LAYER_1
 62
   253
100
AcDbSpline
210
0.0
220
0.0
230
1.0
 70
    11
 71
     3
 72
    44
 73
    40
 74
     0
 42
0.0000000001
 43
0.0000000001
 40
0.0
 40
0.0
 40
0.0
 40
0.0
 40
0.1
 40
0.1
 40
0.1
 40
0.1
 40
0.2
 40
0.2
 40
0.2
 40
0.2
 40
0.3
 40
0.3
 40
0.3
 40
0.3
 40
0.4
 40
0.4
 40
0.4
 40
0.4
 40
0.5
 40
0.5
 40
0.5
 40
0.5
 40
0.6
 40
0.6
 40
0.6
 40
0.6
 40
0.7
 40
0.7
 40
0.7
 40
0.7
 40
0.7999999999999999
 40
0.7999999999999999
 40
0.7999999999999999
 40
0.7999999999999999
 40
0.8999999999999999
 40
0.8999999999999999
 40
0.8999999999999999
 40
0.8999999999999999
 40
1.0
 40
1.0
 40
1.0
 40
1.0
 10
-1.847188976377953
 20
2.5163031496063
 30
0.0
 10
-1.847188976377953
 20
2.5163031496063
 30
0.0
 10
-1.844948818897638
 20
3.269405511811024
 30
0.0
 10
-1.844948818897638
 20
3.269405511811024
 30
0.0
 10
-1.844948818897638
 20
3.269405511811024
 30
0.0
 10
-1.844948818897638
 20
3.269405511811024
 30
0.0
 10
-1.853818897637795
 20
3.277468503937008
 30
0.0
 10
-1.853818897637795
 20
3.277468503937008
 30
0.0
 10
-1.853818897637795
 20
3.277468503937008
 30
0.0
 10
-1.853818897637795
 20
3.277468503937008
 30
0.0
 10
-1.863444881889764
 20
3.284665354330709
 30
0.0
 10
-1.863444881889764
 20
3.284665354330709
 30
0.0
 10
-1.863444881889764
 20
3.284665354330709
 30
0.0
 10
-1.863444881889764
 20
3.284665354330709
 30
0.0
 10
-1.873751968503937
 20
3.290929133858268
 30
0.0
 10
-1.873751968503937
 20
3.290929133858268
 30
0.0
 10
-1.873751968503937
 20
3.290929133858268
 30
0.0
 10
-1.873751968503937
 20
3.290929133858268
 30
0.0
 10
-1.884681102362205
 20
3.296196850393701
 30
0.0
 10
-1.884681102362205
 20
3.296196850393701
 30
0.0
 10
-1.884681102362205
 20
3.296196850393701
 30
0.0
 10
-1.884681102362205
 20
3.296196850393701
 30
0.0
 10
-1.88692125984252
 20
2.543094488188976
 30
0.0
 10
-1.88692125984252
 20
2.543094488188976
 30
0.0
 10
-1.88692125984252
 20
2.543094488188976
 30
0.0
 10
-1.88692125984252
 20
2.543094488188976
 30
0.0
 10
-1.875992125984252
 20
2.537826771653543
 30
0.0
 10
-1.875992125984252
 20
2.537826771653543
 30
0.0
 10
-1.875992125984252
 20
2.537826771653543
 30
0.0
 10
-1.875992125984252
 20
2.537826771653543
 30
0.0
 10
-1.865685039370079
 20
2.531562992125985
 30
0.0
 10
-1.865685039370079
 20
2.531562992125985
 30
0.0
 10
-1.865685039370079
 20
2.531562992125985
 30
0.0
 10
-1.865685039370079
 20
2.531562992125985
 30
0.0
 10
-1.85605905511811
 20
2.524366141732283
 30
0.0
 10
-1.85605905511811
 20
2.524366141732283
 30
0.0
 10
-1.85605905511811
 20
2.524366141732283
 30
0.0
 10
-1.85605905511811
 20
2.524366141732283
 30
0.0
 10
-1.847188976377953
 20
2.5163031496063
 30
0.0
 10
-1.847188976377953
 20
2.5163031496063
 30
0.0
  0
SPLINE
  5
4F
330
1F
100
AcDbEntity
  8
LAYER_1
 62
   252
100
AcDbSpline
210
0.0
220
0.0
230
1.0
 70
    11
 71
     3
 72
    44
 73
    40
 74
     0
 42
0.0000000001
 43
0.0000000001
 40
0.0
 40
0.0
 40
0.0
 40
0.0
 40
0.1
 40
0.1
 40
0.1
 40
0.1
 40
0.2
 40
0.2
 40
0.2
 40
0.2
 40
0.3
 40
0.3
 40
0.3
 40
0.3
 40
0.4
 40
0.4
 40
0.4
 40
0.4
 40
0.5
 40
0.5
 40
0.5
 40
0.5
 40
0.6
 40
0.6
 40
0.6
 40
0.6
 40
0.7
 40
0.7
 40
0.7
 40
0.7
 40
0.7999999999999999
 40
0.7999999999999999
 40
0.7999999999999999
 40
0.7999999999999999
 40
0.8999999999999999
 40
0.8999999999999999
 40
0.8999999999999999
 40
0.8999999999999999
 40
1.0
 40
1.0
 40
1.0
 40
1.0
 10
-1.88692125984252
 20
2.543094488188976
 30
0.0
 10
-1.88692125984252
 20
2.543094488188976
 30
0.0
 10
-1.884681102362205
 20
3.296196850393701
 30
0.0
 10
-1.884681102362205
 20
3.296196850393701
 30
0.0
 10
-1.884681102362205
 20
3.296196850393701
 30
0.0
 10
-1.884681102362205
 20
3.296196850393701
 30
0.0
 10
-1.896161417322835
 20
3.300397637795276
 30
0.0
 10
-1.896161417322835
 20
3.300397637795276
 30
0.0
 10
-1.896161417322835
 20
3.300397637795276
 30
0.0
 10
-1.896161417322835
 20
3.300397637795276
 30
0.0
 10
-1.908141732283465
 20
3.30348031496063
 30
0.0
 10
-1.908141732283465
 20
3.30348031496063
 30
0.0
 10
-1.908141732283465
 20
3.30348031496063
 30
0.0
 10
-1.908141732283465
 20
3.30348031496063
 30
0.0
 10
-1.920551181102362
 20
3.305374015748032
 30
0.0
 10
-1.920551181102362
 20
3.305374015748032
 30
0.0
 10
-1.920551181102362
 20
3.305374015748032
 30
0.0
 10
-1.920551181102362
 20
3.305374015748032
 30
0.0
 10
-1.933334645669292
 20
3.306023622047244
 30
0.0
 10
-1.933334645669292
 20
3.306023622047244
 30
0.0
 10
-1.933334645669292
 20
3.306023622047244
 30
0.0
 10
-1.933334645669292
 20
3.306023622047244
 30
0.0
 10
-1.935574803149606
 20
2.55292125984252
 30
0.0
 10
-1.935574803149606
 20
2.55292125984252
 30
0.0
 10
-1.935574803149606
 20
2.55292125984252
 30
0.0
 10
-1.935574803149606
 20
2.55292125984252
 30
0.0
 10
-1.922791338582677
 20
2.552271653543307
 30
0.0
 10
-1.922791338582677
 20
2.552271653543307
 30
0.0
 10
-1.922791338582677
 20
2.552271653543307
 30
0.0
 10
-1.922791338582677
 20
2.552271653543307
 30
0.0
 10
-1.91038188976378
 20
2.550377952755905
 30
0.0
 10
-1.91038188976378
 20
2.550377952755905
 30
0.0
 10
-1.91038188976378
 20
2.550377952755905
 30
0.0
 10
-1.91038188976378
 20
2.550377952755905
 30
0.0
 10
-1.89840157480315
 20
2.547295275590551
 30
0.0
 10
-1.89840157480315
 20
2.547295275590551
 30
0.0
 10
-1.89840157480315
 20
2.547295275590551
 30
0.0
 10
-1.89840157480315
 20
2.547295275590551
 30
0.0
 10
-1.88692125984252
 20
2.543094488188976
 30
0.0
 10
-1.88692125984252
 20
2.543094488188976
 30
0.0
  0
SPLINE
  5
50
330
1F
100
AcDbEntity
  8
LAYER_1
 62
   252
100
AcDbSpline
210
0.0
220
0.0
230
1.0
 70
    11
 71
     3
 72
    44
 73
    40
 74
     0
 42
0.0000000001
 43
0.0000000001
 40
0.0
 40
0.0
 40
0.0
 40
0.0
 40
0.1
 40
0.1
 40
0.1
 40
0.1
 40
0.2
 40
0.2
 40
0.2
 40
0.2
 40
0.3
 40
0.3
 40
0.3
 40
0.3
 40
0.4
 40
0.4
 40
0.4
 40
0.4
 40
0.5
 40
0.5
 40
0.5
 40
0.5
 40
0.6
 40
0.6
 40
0.6
 40
0.6
 40
0.7
 40
0.7
 40
0.7
 40
0.7
 40
0.7999999999999999
 40
0.7999999999999999
 40
0.7999999999999999
 40
0.7999999999999999
 40
0.8999999999999999
 40
0.8999999999999999
 40
0.8999999999999999
 40
0.8999999999999999
 40
1.0
 40
1.0
 40
1.0
 40
1.0
 10
-1.935574803149606
 20
2.55292125984252
 30
0.0
 10
-1.935574803149606
 20
2.55292125984252
 30
0.0
 10
-1.933334645669292
 20
3.306023622047244
 30
0.0
 10
-1.933334645669292
 20
3.306023622047244
 30
0.0
 10
-1.933334645669292
 20
3.306023622047244
 30
0.0
 10
-1.933334645669292
 20
3.306023622047244
 30
0.0
 10
-1.946106299212599
 20
3.305374015748032
 30
0.0
 10
-1.946106299212599
 20
3.305374015748032
 30
0.0
 10
-1.946106299212599
 20
3.305374015748032
 30
0.0
 10
-1.946106299212599
 20
3.305374015748032
 30
0.0
 10
-1.958515748031496
 20
3.30348031496063
 30
0.0
 10
-1.958515748031496
 20
3.30348031496063
 30
0.0
 10
-1.958515748031496
 20
3.30348031496063
 30
0.0
 10
-1.958515748031496
 20
3.30348031496063
 30
0.0
 10
-1.970492125984252
 20
3.300397637795276
 30
0.0
 10
-1.970492125984252
 20
3.300397637795276
 30
0.0
 10
-1.970492125984252
 20
3.300397637795276
 30
0.0
 10
-1.970492125984252
 20
3.300397637795276
 30
0.0
 10
-1.98198031496063
 20
3.296196850393701
 30
0.0
 10
-1.98198031496063
 20
3.296196850393701
 30
0.0
 10
-1.98198031496063
 20
3.296196850393701
 30
0.0
 10
-1.98198031496063
 20
3.296196850393701
 30
0.0
 10
-1.984220472440945
 20
2.543094488188976
 30
0.0
 10
-1.984220472440945
 20
2.543094488188976
 30
0.0
 10
-1.984220472440945
 20
2.543094488188976
 30
0.0
 10
-1.984220472440945
 20
2.543094488188976
 30
0.0
 10
-1.972732283464567
 20
2.547295275590551
 30
0.0
 10
-1.972732283464567
 20
2.547295275590551
 30
0.0
 10
-1.972732283464567
 20
2.547295275590551
 30
0.0
 10
-1.972732283464567
 20
2.547295275590551
 30
0.0
 10
-1.960755905511811
 20
2.550377952755905
 30
0.0
 10
-1.960755905511811
 20
2.550377952755905
 30
0.0
 10
-1.960755905511811
 20
2.550377952755905
 30
0.0
 10
-1.960755905511811
 20
2.550377952755905
 30
0.0
 10
-1.948346456692913
 20
2.552271653543307
 30
0.0
 10
-1.948346456692913
 20
2.552271653543307
 30
0.0
 10
-1.948346456692913
 20
2.552271653543307
 30
0.0
 10
-1.948346456692913
 20
2.552271653543307
 30
0.0
 10
-1.935574803149606
 20
2.55292125984252
 30
0.0
 10
-1.935574803149606
 20
2.55292125984252
 30
0.0
  0
SPLINE
  5
51
330
1F
100
AcDbEntity
  8
LAYER_1
 62
   252
100
AcDbSpline
210
0.0
220
0.0
230
1.0
 70
    11
 71
     3
 72
    44
 73
    40
 74
     0
 42
0.0000000001
 43
0.0000000001
 40
0.0
 40
0.0
 40
0.0
 40
0.0
 40
0.1
 40
0.1
 40
0.1
 40
0.1
 40
0.2
 40
0.2
 40
0.2
 40
0.2
 40
0.3
 40
0.3
 40
0.3
 40
0.3
 40
0.4
 40
0.4
 40
0.4
 40
0.4
 40
0.5
 40
0.5
 40
0.5
 40
0.5
 40
0.6
 40
0.6
 40
0.6
 40
0.6
 40
0.7
 40
0.7
 40
0.7
 40
0.7
 40
0.7999999999999999
 40
0.7999999999999999
 40
0.7999999999999999
 40
0.7999999999999999
 40
0.8999999999999999
 40
0.8999999999999999
 40
0.8999999999999999
 40
0.8999999999999999
 40
1.0
 40
1.0
 40
1.0
 40
1.0
 10
-1.984220472440945
 20
2.543094488188976
 30
0.0
 10
-1.984220472440945
 20
2.543094488188976
 30
0.0
 10
-1.98198031496063
 20
3.296196850393701
 30
0.0
 10
-1.98198031496063
 20
3.296196850393701
 30
0.0
 10
-1.98198031496063
 20
3.296196850393701
 30
0.0
 10
-1.98198031496063
 20
3.296196850393701
 30
0.0
 10
-1.99290157480315
 20
3.290929133858268
 30
0.0
 10
-1.99290157480315
 20
3.290929133858268
 30
0.0
 10
-1.99290157480315
 20
3.290929133858268
 30
0.0
 10
-1.99290157480315
 20
3.290929133858268
 30
0.0
 10
-2.003212598425197
 20
3.284665354330709
 30
0.0
 10
-2.003212598425197
 20
3.284665354330709
 30
0.0
 10
-2.003212598425197
 20
3.284665354330709
 30
0.0
 10
-2.003212598425197
 20
3.284665354330709
 30
0.0
 10
-2.012834645669292
 20
3.277468503937008
 30
0.0
 10
-2.012834645669292
 20
3.277468503937008
 30
0.0
 10
-2.012834645669292
 20
3.277468503937008
 30
0.0
 10
-2.012834645669292
 20
3.277468503937008
 30
0.0
 10
-2.021716535433071
 20
3.269405511811024
 30
0.0
 10
-2.021716535433071
 20
3.269405511811024
 30
0.0
 10
-2.021716535433071
 20
3.269405511811024
 30
0.0
 10
-2.021716535433071
 20
3.269405511811024
 30
0.0
 10
-2.023956692913386
 20
2.5163031496063
 30
0.0
 10
-2.023956692913386
 20
2.5163031496063
 30
0.0
 10
-2.023956692913386
 20
2.5163031496063
 30
0.0
 10
-2.023956692913386
 20
2.5163031496063
 30
0.0
 10
-2.015074803149606
 20
2.524366141732283
 30
0.0
 10
-2.015074803149606
 20
2.524366141732283
 30
0.0
 10
-2.015074803149606
 20
2.524366141732283
 30
0.0
 10
-2.015074803149606
 20
2.524366141732283
 30
0.0
 10
-2.005452755905512
 20
2.531562992125985
 30
0.0
 10
-2.005452755905512
 20
2.531562992125985
 30
0.0
 10
-2.005452755905512
 20
2.531562992125985
 30
0.0
 10
-2.005452755905512
 20
2.531562992125985
 30
0.0
 10
-1.995141732283465
 20
2.537826771653543
 30
0.0
 10
-1.995141732283465
 20
2.537826771653543
 30
0.0
 10
-1.995141732283465
 20
2.537826771653543
 30
0.0
 10
-1.995141732283465
 20
2.537826771653543
 30
0.0
 10
-1.984220472440945
 20
2.543094488188976
 30
0.0
 10
-1.984220472440945
 20
2.543094488188976
 30
0.0
  0
SPLINE
  5
52
330
1F
100
AcDbEntity
  8
LAYER_1
 62
     8
100
AcDbSpline
210
0.0
220
0.0
230
1.0
 70
    11
 71
     3
 72
    44
 73
    40
 74
     0
 42
0.0000000001
 43
0.0000000001
 40
0.0
 40
0.0
 40
0.0
 40
0.0
 40
0.1
 40
0.1
 40
0.1
 40
0.1
 40
0.2
 40
0.2
 40
0.2
 40
0.2
 40
0.3
 40
0.3
 40
0.3
 40
0.3
 40
0.4
 40
0.4
 40
0.4
 40
0.4
 40
0.5
 40
0.5
 40
0.5
 40
0.5
 40
0.6
 40
0.6
 40
0.6
 40
0.6
 40
0.7
 40
0.7
 40
0.7
 40
0.7
 40
0.7999999999999999
 40
0.7999999999999999
 40
0.7999999999999999
 40
0.7999999999999999
 40
0.8999999999999999
 40
0.8999999999999999
 40
0.8999999999999999
 40
0.8999999999999999
 40
1.0
 40
1.0
 40
1.0
 40
1.0
 10
-2.023956692913386
 20
2.5163031496063
 30
0.0
 10
-2.023956692913386
 20
2.5163031496063
 30
0.0
 10
-2.021716535433071
 20
3.269405511811024
 30
0.0
 10
-2.021716535433071
 20
3.269405511811024
 30
0.0
 10
-2.021716535433071
 20
3.269405511811024
 30
0.0
 10
-2.021716535433071
 20
3.269405511811024
 30
0.0
 10
-2.029779527559055
 20
3.260523622047244
 30
0.0
 10
-2.029779527559055
 20
3.260523622047244
 30
0.0
 10
-2.029779527559055
 20
3.260523622047244
 30
0.0
 10
-2.029779527559055
 20
3.260523622047244
 30
0.0
 10
-2.036976377952756
 20
3.25090157480315
 30
0.0
 10
-2.036976377952756
 20
3.25090157480315
 30
0.0
 10
-2.036976377952756
 20
3.25090157480315
 30
0.0
 10
-2.036976377952756
 20
3.25090157480315
 30
0.0
 10
-2.043240157480315
 20
3.240590551181103
 30
0.0
 10
-2.043240157480315
 20
3.240590551181103
 30
0.0
 10
-2.043240157480315
 20
3.240590551181103
 30
0.0
 10
-2.043240157480315
 20
3.240590551181103
 30
0.0
 10
-2.048507874015748
 20
3.229669291338583
 30
0.0
 10
-2.048507874015748
 20
3.229669291338583
 30
0.0
 10
-2.048507874015748
 20
3.229669291338583
 30
0.0
 10
-2.048507874015748
 20
3.229669291338583
 30
0.0
 10
-2.050748031496063
 20
2.476566929133858
 30
0.0
 10
-2.050748031496063
 20
2.476566929133858
 30
0.0
 10
-2.050748031496063
 20
2.476566929133858
 30
0.0
 10
-2.050748031496063
 20
2.476566929133858
 30
0.0
 10
-2.04548031496063
 20
2.487488188976378
 30
0.0
 10
-2.04548031496063
 20
2.487488188976378
 30
0.0
 10
-2.04548031496063
 20
2.487488188976378
 30
0.0
 10
-2.04548031496063
 20
2.487488188976378
 30
0.0
 10
-2.039216535433071
 20
2.497799212598425
 30
0.0
 10
-2.039216535433071
 20
2.497799212598425
 30
0.0
 10
-2.039216535433071
 20
2.497799212598425
 30
0.0
 10
-2.039216535433071
 20
2.497799212598425
 30
0.0
 10
-2.03201968503937
 20
2.50742125984252
 30
0.0
 10
-2.03201968503937
 20
2.50742125984252
 30
0.0
 10
-2.03201968503937
 20
2.50742125984252
 30
0.0
 10
-2.03201968503937
 20
2.50742125984252
 30
0.0
 10
-2.023956692913386
 20
2.5163031496063
 30
0.0
 10
-2.023956692913386
 20
2.5163031496063
 30
0.0
  0
SPLINE
  5
53
330
1F
100
AcDbEntity
  8
LAYER_1
 62
   149
100
AcDbSpline
210
0.0
220
0.0
230
1.0
 70
    11
 71
     3
 72
    36
 73
    32
 74
     0
 42
0.0000000001
 43
0.0000000001
 40
0.0
 40
0.0
 40
0.0
 40
0.0
 40
0.125
 40
0.125
 40
0.125
 40
0.125
 40
0.25
 40
0.25
 40
0.25
 40
0.25
 40
0.375
 40
0.375
 40
0.375
 40
0.375
 40
0.5
 40
0.5
 40
0.5
 40
0.5
 40
0.625
 40
0.625
 40
0.625
 40
0.625
 40
0.75
 40
0.75
 40
0.75
 40
0.75
 40
0.875
 40
0.875
 40
0.875
 40
0.875
 40
1.0
 40
1.0
 40
1.0
 40
1.0
 10
-2.050748031496063
 20
2.476566929133858
 30
0.0
 10
-2.050748031496063
 20
2.476566929133858
 30
0.0
 10
-2.048507874015748
 20
3.229669291338583
 30
0.0
 10
-2.048507874015748
 20
3.229669291338583
 30
0.0
 10
-2.048507874015748
 20
3.229669291338583
 30
0.0
 10
-2.048507874015748
 20
3.229669291338583
 30
0.0
 10
-2.052708661417323
 20
3.218181102362205
 30
0.0
 10
-2.052708661417323
 20
3.218181102362205
 30
0.0
 10
-2.052708661417323
 20
3.218181102362205
 30
0.0
 10
-2.052708661417323
 20
3.218181102362205
 30
0.0
 10
-2.055791338582677
 20
3.206204724409449
 30
0.0
 10
-2.055791338582677
 20
3.206204724409449
 30
0.0
 10
-2.055791338582677
 20
3.206204724409449
 30
0.0
 10
-2.055791338582677
 20
3.206204724409449
 30
0.0
 10
-2.057685039370079
 20
3.193795275590551
 30
0.0
 10
-2.057685039370079
 20
3.193795275590551
 30
0.0
 10
-2.057685039370079
 20
3.193795275590551
 30
0.0
 10
-2.057685039370079
 20
3.193795275590551
 30
0.0
 10
-2.059925196850394
 20
2.440692913385827
 30
0.0
 10
-2.059925196850394
 20
2.440692913385827
 30
0.0
 10
-2.059925196850394
 20
2.440692913385827
 30
0.0
 10
-2.059925196850394
 20
2.440692913385827
 30
0.0
 10
-2.058031496062992
 20
2.453102362204724
 30
0.0
 10
-2.058031496062992
 20
2.453102362204724
 30
0.0
 10
-2.058031496062992
 20
2.453102362204724
 30
0.0
 10
-2.058031496062992
 20
2.453102362204724
 30
0.0
 10
-2.054948818897638
 20
2.46507874015748
 30
0.0
 10
-2.054948818897638
 20
2.46507874015748
 30
0.0
 10
-2.054948818897638
 20
2.46507874015748
 30
0.0
 10
-2.054948818897638
 20
2.46507874015748
 30
0.0
 10
-2.050748031496063
 20
2.476566929133858
 30
0.0
 10
-2.050748031496063
 20
2.476566929133858
 30
0.0
  0
SPLINE
  5
54
330
1F
100
AcDbEntity
  8
LAYER_1
 62
   250
100
AcDbSpline
210
0.0
220
0.0
230
1.0
 70
    11
 71
     3
 72
   260
 73
   256
 74
     0
 42
0.0000000001
 43
0.0000000001
 40
0.0
 40
0.0
 40
0.0
 40
0.0
 40
0.015625
 40
0.015625
 40
0.015625
 40
0.015625
 40
0.03125
 40
0.03125
 40
0.03125
 40
0.03125
 40
0.046875
 40
0.046875
 40
0.046875
 40
0.046875
 40
0.0625
 40
0.0625
 40
0.0625
 40
0.0625
 40
0.078125
 40
0.078125
 40
0.078125
 40
0.078125
 40
0.09375
 40
0.09375
 40
0.09375
 40
0.09375
 40
0.109375
 40
0.109375
 40
0.109375
 40
0.109375
 40
0.125
 40
0.125
 40
0.125
 40
0.125
 40
0.140625
 40
0.140625
 40
0.140625
 40
0.140625
 40
0.15625
 40
0.15625
 40
0.15625
 40
0.15625
 40
0.171875
 40
0.171875
 40
0.171875
 40
0.171875
 40
0.1875
 40
0.1875
 40
0.1875
 40
0.1875
 40
0.203125
 40
0.203125
 40
0.203125
 40
0.203125
 40
0.21875
 40
0.21875
 40
0.21875
 40
0.21875
 40
0.234375
 40
0.234375
 40
0.234375
 40
0.234375
 40
0.25
 40
0.25
 40
0.25
 40
0.25
 40
0.265625
 40
0.265625
 40
0.265625
 40
0.265625
 40
0.28125
 40
0.28125
 40
0.28125
 40
0.28125
 40
0.296875
 40
0.296875
 40
0.296875
 40
0.296875
 40
0.3125
 40
0.3125
 40
0.3125
 40
0.3125
 40
0.328125
 40
0.328125
 40
0.328125
 40
0.328125
 40
0.34375
 40
0.34375
 40
0.34375
 40
0.34375
 40
0.359375
 40
0.359375
 40
0.359375
 40
0.359375
 40
0.375
 40
0.375
 40
0.375
 40
0.375
 40
0.390625
 40
0.390625
 40
0.390625
 40
0.390625
 40
0.40625
 40
0.40625
 40
0.40625
 40
0.40625
 40
0.421875
 40
0.421875
 40
0.421875
 40
0.421875
 40
0.4375
 40
0.4375
 40
0.4375
 40
0.4375
 40
0.453125
 40
0.453125
 40
0.453125
 40
0.453125
 40
0.46875
 40
0.46875
 40
0.46875
 40
0.46875
 40
0.484375
 40
0.484375
 40
0.484375
 40
0.484375
 40
0.5
 40
0.5
 40
0.5
 40
0.5
 40
0.515625
 40
0.515625
 40
0.515625
 40
0.515625
 40
0.53125
 40
0.53125
 40
0.53125
 40
0.53125
 40
0.546875
 40
0.546875
 40
0.546875
 40
0.546875
 40
0.5625
 40
0.5625
 40
0.5625
 40
0.5625
 40
0.578125
 40
0.578125
 40
0.578125
 40
0.578125
 40
0.59375
 40
0.59375
 40
0.59375
 40
0.59375
 40
0.609375
 40
0.609375
 40
0.609375
 40
0.609375
 40
0.625
 40
0.625
 40
0.625
 40
0.625
 40
0.640625
 40
0.640625
 40
0.640625
 40
0.640625
 40
0.65625
 40
0.65625
 40
0.65625
 40
0.65625
 40
0.671875
 40
0.671875
 40
0.671875
 40
0.671875
 40
0.6875
 40
0.6875
 40
0.6875
 40
0.6875
 40
0.703125
 40
0.703125
 40
0.703125
 40
0.703125
 40
0.71875
 40
0.71875
 40
0.71875
 40
0.71875
 40
0.734375
 40
0.734375
 40
0.734375
 40
0.734375
 40
0.75
 40
0.75
 40
0.75
 40
0.75
 40
0.765625
 40
0.765625
 40
0.765625
 40
0.765625
 40
0.78125
 40
0.78125
 40
0.78125
 40
0.78125
 40
0.796875
 40
0.796875
 40
0.796875
 40
0.796875
 40
0.8125
 40
0.8125
 40
0.8125
 40
0.8125
 40
0.828125
 40
0.828125
 40
0.828125
 40
0.828125
 40
0.84375
 40
0.84375
 40
0.84375
 40
0.84375
 40
0.859375
 40
0.859375
 40
0.859375
 40
0.859375
 40
0.875
 40
0.875
 40
0.875
 40
0.875
 40
0.890625
 40
0.890625
 40
0.890625
 40
0.890625
 40
0.90625
 40
0.90625
 40
0.90625
 40
0.90625
 40
0.921875
 40
0.921875
 40
0.921875
 40
0.921875
 40
0.9375
 40
0.9375
 40
0.9375
 40
0.9375
 40
0.953125
 40
0.953125
 40
0.953125
 40
0.953125
 40
0.96875
 40
0.96875
 40
0.96875
 40
0.96875
 40
0.984375
 40
0.984375
 40
0.984375
 40
0.984375
 40
1.0
 40
1.0
 40
1.0
 40
1.0
 10
-1.810574803149606
 20
2.42792125984252
 30
0.0
 10
-1.810574803149606
 20
2.42792125984252
 30
0.0
 10
-1.808334645669292
 20
3.181023622047244
 30
0.0
 10
-1.808334645669292
 20
3.181023622047244
 30
0.0
 10
-1.808334645669292
 20
3.181023622047244
 30
0.0
 10
-1.808334645669292
 20
3.181023622047244
 30
0.0
 10
-1.808976377952756
 20
3.193795275590551
 30
0.0
 10
-1.808976377952756
 20
3.193795275590551
 30
0.0
 10
-1.808976377952756
 20
3.193795275590551
 30
0.0
 10
-1.808976377952756
 20
3.193795275590551
 30
0.0
 10
-1.810870078740158
 20
3.206204724409449
 30
0.0
 10
-1.810870078740158
 20
3.206204724409449
 30
0.0
 10
-1.810870078740158
 20
3.206204724409449
 30
0.0
 10
-1.810870078740158
 20
3.206204724409449
 30
0.0
 10
-1.813948818897638
 20
3.218181102362205
 30
0.0
 10
-1.813948818897638
 20
3.218181102362205
 30
0.0
 10
-1.813948818897638
 20
3.218181102362205
 30
0.0
 10
-1.813948818897638
 20
3.218181102362205
 30
0.0
 10
-1.818157480314961
 20
3.229669291338583
 30
0.0
 10
-1.818157480314961
 20
3.229669291338583
 30
0.0
 10
-1.818157480314961
 20
3.229669291338583
 30
0.0
 10
-1.818157480314961
 20
3.229669291338583
 30
0.0
 10
-1.823417322834646
 20
3.240590551181103
 30
0.0
 10
-1.823417322834646
 20
3.240590551181103
 30
0.0
 10
-1.823417322834646
 20
3.240590551181103
 30
0.0
 10
-1.823417322834646
 20
3.240590551181103
 30
0.0
 10
-1.829681102362205
 20
3.25090157480315
 30
0.0
 10
-1.829681102362205
 20
3.25090157480315
 30
0.0
 10
-1.829681102362205
 20
3.25090157480315
 30
0.0
 10
-1.829681102362205
 20
3.25090157480315
 30
0.0
 10
-1.836874015748032
 20
3.260523622047244
 30
0.0
 10
-1.836874015748032
 20
3.260523622047244
 30
0.0
 10
-1.836874015748032
 20
3.260523622047244
 30
0.0
 10
-1.836874015748032
 20
3.260523622047244
 30
0.0
 10
-1.844948818897638
 20
3.269405511811024
 30
0.0
 10
-1.844948818897638
 20
3.269405511811024
 30
0.0
 10
-1.844948818897638
 20
3.269405511811024
 30
0.0
 10
-1.844948818897638
 20
3.269405511811024
 30
0.0
 10
-1.853818897637795
 20
3.277468503937008
 30
0.0
 10
-1.853818897637795
 20
3.277468503937008
 30
0.0
 10
-1.853818897637795
 20
3.277468503937008
 30
0.0
 10
-1.853818897637795
 20
3.277468503937008
 30
0.0
 10
-1.863444881889764
 20
3.284665354330709
 30
0.0
 10
-1.863444881889764
 20
3.284665354330709
 30
0.0
 10
-1.863444881889764
 20
3.284665354330709
 30
0.0
 10
-1.863444881889764
 20
3.284665354330709
 30
0.0
 10
-1.873751968503937
 20
3.290929133858268
 30
0.0
 10
-1.873751968503937
 20
3.290929133858268
 30
0.0
 10
-1.873751968503937
 20
3.290929133858268
 30
0.0
 10
-1.873751968503937
 20
3.290929133858268
 30
0.0
 10
-1.884681102362205
 20
3.296196850393701
 30
0.0
 10
-1.884681102362205
 20
3.296196850393701
 30
0.0
 10
-1.884681102362205
 20
3.296196850393701
 30
0.0
 10
-1.884681102362205
 20
3.296196850393701
 30
0.0
 10
-1.896161417322835
 20
3.300397637795276
 30
0.0
 10
-1.896161417322835
 20
3.300397637795276
 30
0.0
 10
-1.896161417322835
 20
3.300397637795276
 30
0.0
 10
-1.896161417322835
 20
3.300397637795276
 30
0.0
 10
-1.908141732283465
 20
3.30348031496063
 30
0.0
 10
-1.908141732283465
 20
3.30348031496063
 30
0.0
 10
-1.908141732283465
 20
3.30348031496063
 30
0.0
 10
-1.908141732283465
 20
3.30348031496063
 30
0.0
 10
-1.920551181102362
 20
3.305374015748032
 30
0.0
 10
-1.920551181102362
 20
3.305374015748032
 30
0.0
 10
-1.920551181102362
 20
3.305374015748032
 30
0.0
 10
-1.920551181102362
 20
3.305374015748032
 30
0.0
 10
-1.933334645669292
 20
3.306023622047244
 30
0.0
 10
-1.933334645669292
 20
3.306023622047244
 30
0.0
 10
-1.933334645669292
 20
3.306023622047244
 30
0.0
 10
-1.933334645669292
 20
3.306023622047244
 30
0.0
 10
-1.946106299212599
 20
3.305374015748032
 30
0.0
 10
-1.946106299212599
 20
3.305374015748032
 30
0.0
 10
-1.946106299212599
 20
3.305374015748032
 30
0.0
 10
-1.946106299212599
 20
3.305374015748032
 30
0.0
 10
-1.958515748031496
 20
3.30348031496063
 30
0.0
 10
-1.958515748031496
 20
3.30348031496063
 30
0.0
 10
-1.958515748031496
 20
3.30348031496063
 30
0.0
 10
-1.958515748031496
 20
3.30348031496063
 30
0.0
 10
-1.970492125984252
 20
3.300397637795276
 30
0.0
 10
-1.970492125984252
 20
3.300397637795276
 30
0.0
 10
-1.970492125984252
 20
3.300397637795276
 30
0.0
 10
-1.970492125984252
 20
3.300397637795276
 30
0.0
 10
-1.98198031496063
 20
3.296196850393701
 30
0.0
 10
-1.98198031496063
 20
3.296196850393701
 30
0.0
 10
-1.98198031496063
 20
3.296196850393701
 30
0.0
 10
-1.98198031496063
 20
3.296196850393701
 30
0.0
 10
-1.99290157480315
 20
3.290929133858268
 30
0.0
 10
-1.99290157480315
 20
3.290929133858268
 30
0.0
 10
-1.99290157480315
 20
3.290929133858268
 30
0.0
 10
-1.99290157480315
 20
3.290929133858268
 30
0.0
 10
-2.003212598425197
 20
3.284665354330709
 30
0.0
 10
-2.003212598425197
 20
3.284665354330709
 30
0.0
 10
-2.003212598425197
 20
3.284665354330709
 30
0.0
 10
-2.003212598425197
 20
3.284665354330709
 30
0.0
 10
-2.012834645669292
 20
3.277468503937008
 30
0.0
 10
-2.012834645669292
 20
3.277468503937008
 30
0.0
 10
-2.012834645669292
 20
3.277468503937008
 30
0.0
 10
-2.012834645669292
 20
3.277468503937008
 30
0.0
 10
-2.021716535433071
 20
3.269405511811024
 30
0.0
 10
-2.021716535433071
 20
3.269405511811024
 30
0.0
 10
-2.021716535433071
 20
3.269405511811024
 30
0.0
 10
-2.021716535433071
 20
3.269405511811024
 30
0.0
 10
-2.029779527559055
 20
3.260523622047244
 30
0.0
 10
-2.029779527559055
 20
3.260523622047244
 30
0.0
 10
-2.029779527559055
 20
3.260523622047244
 30
0.0
 10
-2.029779527559055
 20
3.260523622047244
 30
0.0
 10
-2.036976377952756
 20
3.25090157480315
 30
0.0
 10
-2.036976377952756
 20
3.25090157480315
 30
0.0
 10
-2.036976377952756
 20
3.25090157480315
 30
0.0
 10
-2.036976377952756
 20
3.25090157480315
 30
0.0
 10
-2.043240157480315
 20
3.240590551181103
 30
0.0
 10
-2.043240157480315
 20
3.240590551181103
 30
0.0
 10
-2.043240157480315
 20
3.240590551181103
 30
0.0
 10
-2.043240157480315
 20
3.240590551181103
 30
0.0
 10
-2.048507874015748
 20
3.229669291338583
 30
0.0
 10
-2.048507874015748
 20
3.229669291338583
 30
0.0
 10
-2.048507874015748
 20
3.229669291338583
 30
0.0
 10
-2.048507874015748
 20
3.229669291338583
 30
0.0
 10
-2.052708661417323
 20
3.218181102362205
 30
0.0
 10
-2.052708661417323
 20
3.218181102362205
 30
0.0
 10
-2.052708661417323
 20
3.218181102362205
 30
0.0
 10
-2.052708661417323
 20
3.218181102362205
 30
0.0
 10
-2.055791338582677
 20
3.206204724409449
 30
0.0
 10
-2.055791338582677
 20
3.206204724409449
 30
0.0
 10
-2.055791338582677
 20
3.206204724409449
 30
0.0
 10
-2.055791338582677
 20
3.206204724409449
 30
0.0
 10
-2.057685039370079
 20
3.193795275590551
 30
0.0
 10
-2.057685039370079
 20
3.193795275590551
 30
0.0
 10
-2.057685039370079
 20
3.193795275590551
 30
0.0
 10
-2.057685039370079
 20
3.193795275590551
 30
0.0
 10
-2.059925196850394
 20
2.440692913385827
 30
0.0
 10
-2.059925196850394
 20
2.440692913385827
 30
0.0
 10
-2.059925196850394
 20
2.440692913385827
 30
0.0
 10
-2.059925196850394
 20
2.440692913385827
 30
0.0
 10
-2.058031496062992
 20
2.453102362204724
 30
0.0
 10
-2.058031496062992
 20
2.453102362204724
 30
0.0
 10
-2.058031496062992
 20
2.453102362204724
 30
0.0
 10
-2.058031496062992
 20
2.453102362204724
 30
0.0
 10
-2.054948818897638
 20
2.46507874015748
 30
0.0
 10
-2.054948818897638
 20
2.46507874015748
 30
0.0
 10
-2.054948818897638
 20
2.46507874015748
 30
0.0
 10
-2.054948818897638
 20
2.46507874015748
 30
0.0
 10
-2.050748031496063
 20
2.476566929133858
 30
0.0
 10
-2.050748031496063
 20
2.476566929133858
 30
0.0
 10
-2.050748031496063
 20
2.476566929133858
 30
0.0
 10
-2.050748031496063
 20
2.476566929133858
 30
0.0
 10
-2.04548031496063
 20
2.487488188976378
 30
0.0
 10
-2.04548031496063
 20
2.487488188976378
 30
0.0
 10
-2.04548031496063
 20
2.487488188976378
 30
0.0
 10
-2.04548031496063
 20
2.487488188976378
 30
0.0
 10
-2.039216535433071
 20
2.497799212598425
 30
0.0
 10
-2.039216535433071
 20
2.497799212598425
 30
0.0
 10
-2.039216535433071
 20
2.497799212598425
 30
0.0
 10
-2.039216535433071
 20
2.497799212598425
 30
0.0
 10
-2.03201968503937
 20
2.50742125984252
 30
0.0
 10
-2.03201968503937
 20
2.50742125984252
 30
0.0
 10
-2.03201968503937
 20
2.50742125984252
 30
0.0
 10
-2.03201968503937
 20
2.50742125984252
 30
0.0
 10
-2.023956692913386
 20
2.5163031496063
 30
0.0
 10
-2.023956692913386
 20
2.5163031496063
 30
0.0
 10
-2.023956692913386
 20
2.5163031496063
 30
0.0
 10
-2.023956692913386
 20
2.5163031496063
 30
0.0
 10
-2.015074803149606
 20
2.524366141732283
 30
0.0
 10
-2.015074803149606
 20
2.524366141732283
 30
0.0
 10
-2.015074803149606
 20
2.524366141732283
 30
0.0
 10
-2.015074803149606
 20
2.524366141732283
 30
0.0
 10
-2.005452755905512
 20
2.531562992125985
 30
0.0
 10
-2.005452755905512
 20
2.531562992125985
 30
0.0
 10
-2.005452755905512
 20
2.531562992125985
 30
0.0
 10
-2.005452755905512
 20
2.531562992125985
 30
0.0
 10
-1.995141732283465
 20
2.537826771653543
 30
0.0
 10
-1.995141732283465
 20
2.537826771653543
 30
0.0
 10
-1.995141732283465
 20
2.537826771653543
 30
0.0
 10
-1.995141732283465
 20
2.537826771653543
 30
0.0
 10
-1.984220472440945
 20
2.543094488188976
 30
0.0
 10
-1.984220472440945
 20
2.543094488188976
 30
0.0
 10
-1.984220472440945
 20
2.543094488188976
 30
0.0
 10
-1.984220472440945
 20
2.543094488188976
 30
0.0
 10
-1.972732283464567
 20
2.547295275590551
 30
0.0
 10
-1.972732283464567
 20
2.547295275590551
 30
0.0
 10
-1.972732283464567
 20
2.547295275590551
 30
0.0
 10
-1.972732283464567
 20
2.547295275590551
 30
0.0
 10
-1.960755905511811
 20
2.550377952755905
 30
0.0
 10
-1.960755905511811
 20
2.550377952755905
 30
0.0
 10
-1.960755905511811
 20
2.550377952755905
 30
0.0
 10
-1.960755905511811
 20
2.550377952755905
 30
0.0
 10
-1.948346456692913
 20
2.552271653543307
 30
0.0
 10
-1.948346456692913
 20
2.552271653543307
 30
0.0
 10
-1.948346456692913
 20
2.552271653543307
 30
0.0
 10
-1.948346456692913
 20
2.552271653543307
 30
0.0
 10
-1.935574803149606
 20
2.55292125984252
 30
0.0
 10
-1.935574803149606
 20
2.55292125984252
 30
0.0
 10
-1.935574803149606
 20
2.55292125984252
 30
0.0
 10
-1.935574803149606
 20
2.55292125984252
 30
0.0
 10
-1.922791338582677
 20
2.552271653543307
 30
0.0
 10
-1.922791338582677
 20
2.552271653543307
 30
0.0
 10
-1.922791338582677
 20
2.552271653543307
 30
0.0
 10
-1.922791338582677
 20
2.552271653543307
 30
0.0
 10
-1.91038188976378
 20
2.550377952755905
 30
0.0
 10
-1.91038188976378
 20
2.550377952755905
 30
0.0
 10
-1.91038188976378
 20
2.550377952755905
 30
0.0
 10
-1.91038188976378
 20
2.550377952755905
 30
0.0
 10
-1.89840157480315
 20
2.547295275590551
 30
0.0
 10
-1.89840157480315
 20
2.547295275590551
 30
0.0
 10
-1.89840157480315
 20
2.547295275590551
 30
0.0
 10
-1.89840157480315
 20
2.547295275590551
 30
0.0
 10
-1.88692125984252
 20
2.543094488188976
 30
0.0
 10
-1.88692125984252
 20
2.543094488188976
 30
0.0
 10
-1.88692125984252
 20
2.543094488188976
 30
0.0
 10
-1.88692125984252
 20
2.543094488188976
 30
0.0
 10
-1.875992125984252
 20
2.537826771653543
 30
0.0
 10
-1.875992125984252
 20
2.537826771653543
 30
0.0
 10
-1.875992125984252
 20
2.537826771653543
 30
0.0
 10
-1.875992125984252
 20
2.537826771653543
 30
0.0
 10
-1.865685039370079
 20
2.531562992125985
 30
0.0
 10
-1.865685039370079
 20
2.531562992125985
 30
0.0
 10
-1.865685039370079
 20
2.531562992125985
 30
0.0
 10
-1.865685039370079
 20
2.531562992125985
 30
0.0
 10
-1.85605905511811
 20
2.524366141732283
 30
0.0
 10
-1.85605905511811
 20
2.524366141732283
 30
0.0
 10
-1.85605905511811
 20
2.524366141732283
 30
0.0
 10
-1.85605905511811
 20
2.524366141732283
 30
0.0
 10
-1.847188976377953
 20
2.5163031496063
 30
0.0
 10
-1.847188976377953
 20
2.5163031496063
 30
0.0
 10
-1.847188976377953
 20
2.5163031496063
 30
0.0
 10
-1.847188976377953
 20
2.5163031496063
 30
0.0
 10
-1.839114173228347
 20
2.50742125984252
 30
0.0
 10
-1.839114173228347
 20
2.50742125984252
 30
0.0
 10
-1.839114173228347
 20
2.50742125984252
 30
0.0
 10
-1.839114173228347
 20
2.50742125984252
 30
0.0
 10
-1.83192125984252
 20
2.497799212598425
 30
0.0
 10
-1.83192125984252
 20
2.497799212598425
 30
0.0
 10
-1.83192125984252
 20
2.497799212598425
 30
0.0
 10
-1.83192125984252
 20
2.497799212598425
 30
0.0
 10
-1.825657480314961
 20
2.487488188976378
 30
0.0
 10
-1.825657480314961
 20
2.487488188976378
 30
0.0
 10
-1.825657480314961
 20
2.487488188976378
 30
0.0
 10
-1.825657480314961
 20
2.487488188976378
 30
0.0
 10
-1.820397637795276
 20
2.476566929133858
 30
0.0
 10
-1.820397637795276
 20
2.476566929133858
 30
0.0
 10
-1.820397637795276
 20
2.476566929133858
 30
0.0
 10
-1.820397637795276
 20
2.476566929133858
 30
0.0
 10
-1.816188976377953
 20
2.46507874015748
 30
0.0
 10
-1.816188976377953
 20
2.46507874015748
 30
0.0
 10
-1.816188976377953
 20
2.46507874015748
 30
0.0
 10
-1.816188976377953
 20
2.46507874015748
 30
0.0
 10
-1.813110236220473
 20
2.453102362204724
 30
0.0
 10
-1.813110236220473
 20
2.453102362204724
 30
0.0
 10
-1.813110236220473
 20
2.453102362204724
 30
0.0
 10
-1.813110236220473
 20
2.453102362204724
 30
0.0
 10
-1.811216535433071
 20
2.440692913385827
 30
0.0
 10
-1.811216535433071
 20
2.440692913385827
 30
0.0
 10
-1.811216535433071
 20
2.440692913385827
 30
0.0
 10
-1.811216535433071
 20
2.440692913385827
 30
0.0
 10
-1.810574803149606
 20
2.42792125984252
 30
0.0
 10
-1.810574803149606
 20
2.42792125984252
 30
0.0
  0
SPLINE
  5
55
330
1F
100
AcDbEntity
  8
LAYER_1
 62
   252
100
AcDbSpline
210
0.0
220
0.0
230
1.0
 70
    11
 71
     3
 72
    44
 73
    40
 74
     0
 42
0.0000000001
 43
0.0000000001
 40
0.0
 40
0.0
 40
0.0
 40
0.0
 40
0.1
 40
0.1
 40
0.1
 40
0.1
 40
0.2
 40
0.2
 40
0.2
 40
0.2
 40
0.3
 40
0.3
 40
0.3
 40
0.3
 40
0.4
 40
0.4
 40
0.4
 40
0.4
 40
0.5
 40
0.5
 40
0.5
 40
0.5
 40
0.6
 40
0.6
 40
0.6
 40
0.6
 40
0.7
 40
0.7
 40
0.7
 40
0.7
 40
0.7999999999999999
 40
0.7999999999999999
 40
0.7999999999999999
 40
0.7999999999999999
 40
0.8999999999999999
 40
0.8999999999999999
 40
0.8999999999999999
 40
0.8999999999999999
 40
1.0
 40
1.0
 40
1.0
 40
1.0
 10
1.937429133858268
 20
2.440692913385827
 30
0.0
 10
1.937429133858268
 20
2.440692913385827
 30
0.0
 10
1.939669291338583
 20
3.193795275590551
 30
0.0
 10
1.939669291338583
 20
3.193795275590551
 30
0.0
 10
1.939669291338583
 20
3.193795275590551
 30
0.0
 10
1.939669291338583
 20
3.193795275590551
 30
0.0
 10
1.937775590551181
 20
3.206204724409449
 30
0.0
 10
1.937775590551181
 20
3.206204724409449
 30
0.0
 10
1.937775590551181
 20
3.206204724409449
 30
0.0
 10
1.937775590551181
 20
3.206204724409449
 30
0.0
 10
1.934692913385827
 20
3.218181102362205
 30
0.0
 10
1.934692913385827
 20
3.218181102362205
 30
0.0
 10
1.934692913385827
 20
3.218181102362205
 30
0.0
 10
1.934692913385827
 20
3.218181102362205
 30
0.0
 10
1.930492125984252
 20
3.229669291338583
 30
0.0
 10
1.930492125984252
 20
3.229669291338583
 30
0.0
 10
1.930492125984252
 20
3.229669291338583
 30
0.0
 10
1.930492125984252
 20
3.229669291338583
 30
0.0
 10
1.925224409448819
 20
3.240590551181103
 30
0.0
 10
1.925224409448819
 20
3.240590551181103
 30
0.0
 10
1.925224409448819
 20
3.240590551181103
 30
0.0
 10
1.925224409448819
 20
3.240590551181103
 30
0.0
 10
1.922984251968504
 20
2.487488188976378
 30
0.0
 10
1.922984251968504
 20
2.487488188976378
 30
0.0
 10
1.922984251968504
 20
2.487488188976378
 30
0.0
 10
1.922984251968504
 20
2.487488188976378
 30
0.0
 10
1.928251968503937
 20
2.476566929133858
 30
0.0
 10
1.928251968503937
 20
2.476566929133858
 30
0.0
 10
1.928251968503937
 20
2.476566929133858
 30
0.0
 10
1.928251968503937
 20
2.476566929133858
 30
0.0
 10
1.932452755905512
 20
2.46507874015748
 30
0.0
 10
1.932452755905512
 20
2.46507874015748
 30
0.0
 10
1.932452755905512
 20
2.46507874015748
 30
0.0
 10
1.932452755905512
 20
2.46507874015748
 30
0.0
 10
1.935535433070866
 20
2.453102362204724
 30
0.0
 10
1.935535433070866
 20
2.453102362204724
 30
0.0
 10
1.935535433070866
 20
2.453102362204724
 30
0.0
 10
1.935535433070866
 20
2.453102362204724
 30
0.0
 10
1.937429133858268
 20
2.440692913385827
 30
0.0
 10
1.937429133858268
 20
2.440692913385827
 30
0.0
  0
SPLINE
  5
56
330
1F
100
AcDbEntity
  8
LAYER_1
 62
   253
100
AcDbSpline
210
0.0
220
0.0
230
1.0
 70
    11
 71
     3
 72
    44
 73
    40
 74
     0
 42
0.0000000001
 43
0.0000000001
 40
0.0
 40
0.0
 40
0.0
 40
0.0
 40
0.1
 40
0.1
 40
0.1
 40
0.1
 40
0.2
 40
0.2
 40
0.2
 40
0.2
 40
0.3
 40
0.3
 40
0.3
 40
0.3
 40
0.4
 40
0.4
 40
0.4
 40
0.4
 40
0.5
 40
0.5
 40
0.5
 40
0.5
 40
0.6
 40
0.6
 40
0.6
 40
0.6
 40
0.7
 40
0.7
 40
0.7
 40
0.7
 40
0.7999999999999999
 40
0.7999999999999999
 40
0.7999999999999999
 40
0.7999999999999999
 40
0.8999999999999999
 40
0.8999999999999999
 40
0.8999999999999999
 40
0.8999999999999999
 40
1.0
 40
1.0
 40
1.0
 40
1.0
 10
1.922984251968504
 20
2.487488188976378
 30
0.0
 10
1.922984251968504
 20
2.487488188976378
 30
0.0
 10
1.925224409448819
 20
3.240590551181103
 30
0.0
 10
1.925224409448819
 20
3.240590551181103
 30
0.0
 10
1.925224409448819
 20
3.240590551181103
 30
0.0
 10
1.925224409448819
 20
3.240590551181103
 30
0.0
 10
1.91896062992126
 20
3.25090157480315
 30
0.0
 10
1.91896062992126
 20
3.25090157480315
 30
0.0
 10
1.91896062992126
 20
3.25090157480315
 30
0.0
 10
1.91896062992126
 20
3.25090157480315
 30
0.0
 10
1.911763779527559
 20
3.260523622047244
 30
0.0
 10
1.911763779527559
 20
3.260523622047244
 30
0.0
 10
1.911763779527559
 20
3.260523622047244
 30
0.0
 10
1.911763779527559
 20
3.260523622047244
 30
0.0
 10
1.903700787401575
 20
3.269405511811024
 30
0.0
 10
1.903700787401575
 20
3.269405511811024
 30
0.0
 10
1.903700787401575
 20
3.269405511811024
 30
0.0
 10
1.903700787401575
 20
3.269405511811024
 30
0.0
 10
1.894818897637795
 20
3.277468503937008
 30
0.0
 10
1.894818897637795
 20
3.277468503937008
 30
0.0
 10
1.894818897637795
 20
3.277468503937008
 30
0.0
 10
1.894818897637795
 20
3.277468503937008
 30
0.0
 10
1.89257874015748
 20
2.524366141732283
 30
0.0
 10
1.89257874015748
 20
2.524366141732283
 30
0.0
 10
1.89257874015748
 20
2.524366141732283
 30
0.0
 10
1.89257874015748
 20
2.524366141732283
 30
0.0
 10
1.90146062992126
 20
2.5163031496063
 30
0.0
 10
1.90146062992126
 20
2.5163031496063
 30
0.0
 10
1.90146062992126
 20
2.5163031496063
 30
0.0
 10
1.90146062992126
 20
2.5163031496063
 30
0.0
 10
1.909523622047244
 20
2.50742125984252
 30
0.0
 10
1.909523622047244
 20
2.50742125984252
 30
0.0
 10
1.909523622047244
 20
2.50742125984252
 30
0.0
 10
1.909523622047244
 20
2.50742125984252
 30
0.0
 10
1.916720472440945
 20
2.497799212598425
 30
0.0
 10
1.916720472440945
 20
2.497799212598425
 30
0.0
 10
1.916720472440945
 20
2.497799212598425
 30
0.0
 10
1.916720472440945
 20
2.497799212598425
 30
0.0
 10
1.922984251968504
 20
2.487488188976378
 30
0.0
 10
1.922984251968504
 20
2.487488188976378
 30
0.0
  0
SPLINE
  5
57
330
1F
100
AcDbEntity
  8
LAYER_1
 62
   253
100
AcDbSpline
210
0.0
220
0.0
230
1.0
 70
    11
 71
     3
 72
    44
 73
    40
 74
     0
 42
0.0000000001
 43
0.0000000001
 40
0.0
 40
0.0
 40
0.0
 40
0.0
 40
0.1
 40
0.1
 40
0.1
 40
0.1
 40
0.2
 40
0.2
 40
0.2
 40
0.2
 40
0.3
 40
0.3
 40
0.3
 40
0.3
 40
0.4
 40
0.4
 40
0.4
 40
0.4
 40
0.5
 40
0.5
 40
0.5
 40
0.5
 40
0.6
 40
0.6
 40
0.6
 40
0.6
 40
0.7
 40
0.7
 40
0.7
 40
0.7
 40
0.7999999999999999
 40
0.7999999999999999
 40
0.7999999999999999
 40
0.7999999999999999
 40
0.8999999999999999
 40
0.8999999999999999
 40
0.8999999999999999
 40
0.8999999999999999
 40
1.0
 40
1.0
 40
1.0
 40
1.0
 10
1.89257874015748
 20
2.524366141732283
 30
0.0
 10
1.89257874015748
 20
2.524366141732283
 30
0.0
 10
1.894818897637795
 20
3.277468503937008
 30
0.0
 10
1.894818897637795
 20
3.277468503937008
 30
0.0
 10
1.894818897637795
 20
3.277468503937008
 30
0.0
 10
1.894818897637795
 20
3.277468503937008
 30
0.0
 10
1.885196850393701
 20
3.284665354330709
 30
0.0
 10
1.885196850393701
 20
3.284665354330709
 30
0.0
 10
1.885196850393701
 20
3.284665354330709
 30
0.0
 10
1.885196850393701
 20
3.284665354330709
 30
0.0
 10
1.874885826771654
 20
3.290929133858268
 30
0.0
 10
1.874885826771654
 20
3.290929133858268
 30
0.0
 10
1.874885826771654
 20
3.290929133858268
 30
0.0
 10
1.874885826771654
 20
3.290929133858268
 30
0.0
 10
1.863964566929134
 20
3.296196850393701
 30
0.0
 10
1.863964566929134
 20
3.296196850393701
 30
0.0
 10
1.863964566929134
 20
3.296196850393701
 30
0.0
 10
1.863964566929134
 20
3.296196850393701
 30
0.0
 10
1.852476377952756
 20
3.300397637795276
 30
0.0
 10
1.852476377952756
 20
3.300397637795276
 30
0.0
 10
1.852476377952756
 20
3.300397637795276
 30
0.0
 10
1.852476377952756
 20
3.300397637795276
 30
0.0
 10
1.850236220472441
 20
2.547295275590551
 30
0.0
 10
1.850236220472441
 20
2.547295275590551
 30
0.0
 10
1.850236220472441
 20
2.547295275590551
 30
0.0
 10
1.850236220472441
 20
2.547295275590551
 30
0.0
 10
1.861724409448819
 20
2.543094488188976
 30
0.0
 10
1.861724409448819
 20
2.543094488188976
 30
0.0
 10
1.861724409448819
 20
2.543094488188976
 30
0.0
 10
1.861724409448819
 20
2.543094488188976
 30
0.0
 10
1.872645669291339
 20
2.537826771653543
 30
0.0
 10
1.872645669291339
 20
2.537826771653543
 30
0.0
 10
1.872645669291339
 20
2.537826771653543
 30
0.0
 10
1.872645669291339
 20
2.537826771653543
 30
0.0
 10
1.882956692913386
 20
2.531562992125985
 30
0.0
 10
1.882956692913386
 20
2.531562992125985
 30
0.0
 10
1.882956692913386
 20
2.531562992125985
 30
0.0
 10
1.882956692913386
 20
2.531562992125985
 30
0.0
 10
1.89257874015748
 20
2.524366141732283
 30
0.0
 10
1.89257874015748
 20
2.524366141732283
 30
0.0
  0
SPLINE
  5
58
330
1F
100
AcDbEntity
  8
LAYER_1
 62
   252
100
AcDbSpline
210
0.0
220
0.0
230
1.0
 70
    11
 71
     3
 72
    36
 73
    32
 74
     0
 42
0.0000000001
 43
0.0000000001
 40
0.0
 40
0.0
 40
0.0
 40
0.0
 40
0.125
 40
0.125
 40
0.125
 40
0.125
 40
0.25
 40
0.25
 40
0.25
 40
0.25
 40
0.375
 40
0.375
 40
0.375
 40
0.375
 40
0.5
 40
0.5
 40
0.5
 40
0.5
 40
0.625
 40
0.625
 40
0.625
 40
0.625
 40
0.75
 40
0.75
 40
0.75
 40
0.75
 40
0.875
 40
0.875
 40
0.875
 40
0.875
 40
1.0
 40
1.0
 40
1.0
 40
1.0
 10
1.850236220472441
 20
2.547295275590551
 30
0.0
 10
1.850236220472441
 20
2.547295275590551
 30
0.0
 10
1.852476377952756
 20
3.300397637795276
 30
0.0
 10
1.852476377952756
 20
3.300397637795276
 30
0.0
 10
1.852476377952756
 20
3.300397637795276
 30
0.0
 10
1.852476377952756
 20
3.300397637795276
 30
0.0
 10
1.8405
 20
3.30348031496063
 30
0.0
 10
1.8405
 20
3.30348031496063
 30
0.0
 10
1.8405
 20
3.30348031496063
 30
0.0
 10
1.8405
 20
3.30348031496063
 30
0.0
 10
1.828090551181103
 20
3.305374015748032
 30
0.0
 10
1.828090551181103
 20
3.305374015748032
 30
0.0
 10
1.828090551181103
 20
3.305374015748032
 30
0.0
 10
1.828090551181103
 20
3.305374015748032
 30
0.0
 10
1.815318897637795
 20
3.306023622047244
 30
0.0
 10
1.815318897637795
 20
3.306023622047244
 30
0.0
 10
1.815318897637795
 20
3.306023622047244
 30
0.0
 10
1.815318897637795
 20
3.306023622047244
 30
0.0
 10
1.81307874015748
 20
2.55292125984252
 30
0.0
 10
1.81307874015748
 20
2.55292125984252
 30
0.0
 10
1.81307874015748
 20
2.55292125984252
 30
0.0
 10
1.81307874015748
 20
2.55292125984252
 30
0.0
 10
1.825850393700788
 20
2.552271653543307
 30
0.0
 10
1.825850393700788
 20
2.552271653543307
 30
0.0
 10
1.825850393700788
 20
2.552271653543307
 30
0.0
 10
1.825850393700788
 20
2.552271653543307
 30
0.0
 10
1.838259842519685
 20
2.550377952755905
 30
0.0
 10
1.838259842519685
 20
2.550377952755905
 30
0.0
 10
1.838259842519685
 20
2.550377952755905
 30
0.0
 10
1.838259842519685
 20
2.550377952755905
 30
0.0
 10
1.850236220472441
 20
2.547295275590551
 30
0.0
 10
1.850236220472441
 20
2.547295275590551
 30
0.0
  0
SPLINE
  5
59
330
1F
100
AcDbEntity
  8
LAYER_1
 62
   252
100
AcDbSpline
210
0.0
220
0.0
230
1.0
 70
    11
 71
     3
 72
    44
 73
    40
 74
     0
 42
0.0000000001
 43
0.0000000001
 40
0.0
 40
0.0
 40
0.0
 40
0.0
 40
0.1
 40
0.1
 40
0.1
 40
0.1
 40
0.2
 40
0.2
 40
0.2
 40
0.2
 40
0.3
 40
0.3
 40
0.3
 40
0.3
 40
0.4
 40
0.4
 40
0.4
 40
0.4
 40
0.5
 40
0.5
 40
0.5
 40
0.5
 40
0.6
 40
0.6
 40
0.6
 40
0.6
 40
0.7
 40
0.7
 40
0.7
 40
0.7
 40
0.7999999999999999
 40
0.7999999999999999
 40
0.7999999999999999
 40
0.7999999999999999
 40
0.8999999999999999
 40
0.8999999999999999
 40
0.8999999999999999
 40
0.8999999999999999
 40
1.0
 40
1.0
 40
1.0
 40
1.0
 10
1.81307874015748
 20
2.55292125984252
 30
0.0
 10
1.81307874015748
 20
2.55292125984252
 30
0.0
 10
1.815318897637795
 20
3.306023622047244
 30
0.0
 10
1.815318897637795
 20
3.306023622047244
 30
0.0
 10
1.815318897637795
 20
3.306023622047244
 30
0.0
 10
1.815318897637795
 20
3.306023622047244
 30
0.0
 10
1.802535433070866
 20
3.305374015748032
 30
0.0
 10
1.802535433070866
 20
3.305374015748032
 30
0.0
 10
1.802535433070866
 20
3.305374015748032
 30
0.0
 10
1.802535433070866
 20
3.305374015748032
 30
0.0
 10
1.790125984251969
 20
3.30348031496063
 30
0.0
 10
1.790125984251969
 20
3.30348031496063
 30
0.0
 10
1.790125984251969
 20
3.30348031496063
 30
0.0
 10
1.790125984251969
 20
3.30348031496063
 30
0.0
 10
1.778145669291339
 20
3.300397637795276
 30
0.0
 10
1.778145669291339
 20
3.300397637795276
 30
0.0
 10
1.778145669291339
 20
3.300397637795276
 30
0.0
 10
1.778145669291339
 20
3.300397637795276
 30
0.0
 10
1.766665354330709
 20
3.296196850393701
 30
0.0
 10
1.766665354330709
 20
3.296196850393701
 30
0.0
 10
1.766665354330709
 20
3.296196850393701
 30
0.0
 10
1.766665354330709
 20
3.296196850393701
 30
0.0
 10
1.764425196850394
 20
2.543094488188976
 30
0.0
 10
1.764425196850394
 20
2.543094488188976
 30
0.0
 10
1.764425196850394
 20
2.543094488188976
 30
0.0
 10
1.764425196850394
 20
2.543094488188976
 30
0.0
 10
1.775905511811024
 20
2.547295275590551
 30
0.0
 10
1.775905511811024
 20
2.547295275590551
 30
0.0
 10
1.775905511811024
 20
2.547295275590551
 30
0.0
 10
1.775905511811024
 20
2.547295275590551
 30
0.0
 10
1.787885826771654
 20
2.550377952755905
 30
0.0
 10
1.787885826771654
 20
2.550377952755905
 30
0.0
 10
1.787885826771654
 20
2.550377952755905
 30
0.0
 10
1.787885826771654
 20
2.550377952755905
 30
0.0
 10
1.800295275590551
 20
2.552271653543307
 30
0.0
 10
1.800295275590551
 20
2.552271653543307
 30
0.0
 10
1.800295275590551
 20
2.552271653543307
 30
0.0
 10
1.800295275590551
 20
2.552271653543307
 30
0.0
 10
1.81307874015748
 20
2.55292125984252
 30
0.0
 10
1.81307874015748
 20
2.55292125984252
 30
0.0
  0
SPLINE
  5
5A
330
1F
100
AcDbEntity
  8
LAYER_1
 62
   252
100
AcDbSpline
210
0.0
220
0.0
230
1.0
 70
    11
 71
     3
 72
    44
 73
    40
 74
     0
 42
0.0000000001
 43
0.0000000001
 40
0.0
 40
0.0
 40
0.0
 40
0.0
 40
0.1
 40
0.1
 40
0.1
 40
0.1
 40
0.2
 40
0.2
 40
0.2
 40
0.2
 40
0.3
 40
0.3
 40
0.3
 40
0.3
 40
0.4
 40
0.4
 40
0.4
 40
0.4
 40
0.5
 40
0.5
 40
0.5
 40
0.5
 40
0.6
 40
0.6
 40
0.6
 40
0.6
 40
0.7
 40
0.7
 40
0.7
 40
0.7
 40
0.7999999999999999
 40
0.7999999999999999
 40
0.7999999999999999
 40
0.7999999999999999
 40
0.8999999999999999
 40
0.8999999999999999
 40
0.8999999999999999
 40
0.8999999999999999
 40
1.0
 40
1.0
 40
1.0
 40
1.0
 10
1.764425196850394
 20
2.543094488188976
 30
0.0
 10
1.764425196850394
 20
2.543094488188976
 30
0.0
 10
1.766665354330709
 20
3.296196850393701
 30
0.0
 10
1.766665354330709
 20
3.296196850393701
 30
0.0
 10
1.766665354330709
 20
3.296196850393701
 30
0.0
 10
1.766665354330709
 20
3.296196850393701
 30
0.0
 10
1.755736220472441
 20
3.290929133858268
 30
0.0
 10
1.755736220472441
 20
3.290929133858268
 30
0.0
 10
1.755736220472441
 20
3.290929133858268
 30
0.0
 10
1.755736220472441
 20
3.290929133858268
 30
0.0
 10
1.745429133858268
 20
3.284665354330709
 30
0.0
 10
1.745429133858268
 20
3.284665354330709
 30
0.0
 10
1.745429133858268
 20
3.284665354330709
 30
0.0
 10
1.745429133858268
 20
3.284665354330709
 30
0.0
 10
1.735803149606299
 20
3.277468503937008
 30
0.0
 10
1.735803149606299
 20
3.277468503937008
 30
0.0
 10
1.735803149606299
 20
3.277468503937008
 30
0.0
 10
1.735803149606299
 20
3.277468503937008
 30
0.0
 10
1.726933070866142
 20
3.269405511811024
 30
0.0
 10
1.726933070866142
 20
3.269405511811024
 30
0.0
 10
1.726933070866142
 20
3.269405511811024
 30
0.0
 10
1.726933070866142
 20
3.269405511811024
 30
0.0
 10
1.724692913385827
 20
2.5163031496063
 30
0.0
 10
1.724692913385827
 20
2.5163031496063
 30
0.0
 10
1.724692913385827
 20
2.5163031496063
 30
0.0
 10
1.724692913385827
 20
2.5163031496063
 30
0.0
 10
1.733562992125984
 20
2.524366141732283
 30
0.0
 10
1.733562992125984
 20
2.524366141732283
 30
0.0
 10
1.733562992125984
 20
2.524366141732283
 30
0.0
 10
1.733562992125984
 20
2.524366141732283
 30
0.0
 10
1.743188976377953
 20
2.531562992125985
 30
0.0
 10
1.743188976377953
 20
2.531562992125985
 30
0.0
 10
1.743188976377953
 20
2.531562992125985
 30
0.0
 10
1.743188976377953
 20
2.531562992125985
 30
0.0
 10
1.753496062992126
 20
2.537826771653543
 30
0.0
 10
1.753496062992126
 20
2.537826771653543
 30
0.0
 10
1.753496062992126
 20
2.537826771653543
 30
0.0
 10
1.753496062992126
 20
2.537826771653543
 30
0.0
 10
1.764425196850394
 20
2.543094488188976
 30
0.0
 10
1.764425196850394
 20
2.543094488188976
 30
0.0
  0
SPLINE
  5
5B
330
1F
100
AcDbEntity
  8
LAYER_1
 62
     8
100
AcDbSpline
210
0.0
220
0.0
230
1.0
 70
    11
 71
     3
 72
    44
 73
    40
 74
     0
 42
0.0000000001
 43
0.0000000001
 40
0.0
 40
0.0
 40
0.0
 40
0.0
 40
0.1
 40
0.1
 40
0.1
 40
0.1
 40
0.2
 40
0.2
 40
0.2
 40
0.2
 40
0.3
 40
0.3
 40
0.3
 40
0.3
 40
0.4
 40
0.4
 40
0.4
 40
0.4
 40
0.5
 40
0.5
 40
0.5
 40
0.5
 40
0.6
 40
0.6
 40
0.6
 40
0.6
 40
0.7
 40
0.7
 40
0.7
 40
0.7
 40
0.7999999999999999
 40
0.7999999999999999
 40
0.7999999999999999
 40
0.7999999999999999
 40
0.8999999999999999
 40
0.8999999999999999
 40
0.8999999999999999
 40
0.8999999999999999
 40
1.0
 40
1.0
 40
1.0
 40
1.0
 10
1.724692913385827
 20
2.5163031496063
 30
0.0
 10
1.724692913385827
 20
2.5163031496063
 30
0.0
 10
1.726933070866142
 20
3.269405511811024
 30
0.0
 10
1.726933070866142
 20
3.269405511811024
 30
0.0
 10
1.726933070866142
 20
3.269405511811024
 30
0.0
 10
1.726933070866142
 20
3.269405511811024
 30
0.0
 10
1.718858267716536
 20
3.260523622047244
 30
0.0
 10
1.718858267716536
 20
3.260523622047244
 30
0.0
 10
1.718858267716536
 20
3.260523622047244
 30
0.0
 10
1.718858267716536
 20
3.260523622047244
 30
0.0
 10
1.711665354330709
 20
3.25090157480315
 30
0.0
 10
1.711665354330709
 20
3.25090157480315
 30
0.0
 10
1.711665354330709
 20
3.25090157480315
 30
0.0
 10
1.711665354330709
 20
3.25090157480315
 30
0.0
 10
1.70540157480315
 20
3.240590551181103
 30
0.0
 10
1.70540157480315
 20
3.240590551181103
 30
0.0
 10
1.70540157480315
 20
3.240590551181103
 30
0.0
 10
1.70540157480315
 20
3.240590551181103
 30
0.0
 10
1.700141732283465
 20
3.229669291338583
 30
0.0
 10
1.700141732283465
 20
3.229669291338583
 30
0.0
 10
1.700141732283465
 20
3.229669291338583
 30
0.0
 10
1.700141732283465
 20
3.229669291338583
 30
0.0
 10
1.69790157480315
 20
2.476566929133858
 30
0.0
 10
1.69790157480315
 20
2.476566929133858
 30
0.0
 10
1.69790157480315
 20
2.476566929133858
 30
0.0
 10
1.69790157480315
 20
2.476566929133858
 30
0.0
 10
1.703161417322835
 20
2.487488188976378
 30
0.0
 10
1.703161417322835
 20
2.487488188976378
 30
0.0
 10
1.703161417322835
 20
2.487488188976378
 30
0.0
 10
1.703161417322835
 20
2.487488188976378
 30
0.0
 10
1.709425196850394
 20
2.497799212598425
 30
0.0
 10
1.709425196850394
 20
2.497799212598425
 30
0.0
 10
1.709425196850394
 20
2.497799212598425
 30
0.0
 10
1.709425196850394
 20
2.497799212598425
 30
0.0
 10
1.716618110236221
 20
2.50742125984252
 30
0.0
 10
1.716618110236221
 20
2.50742125984252
 30
0.0
 10
1.716618110236221
 20
2.50742125984252
 30
0.0
 10
1.716618110236221
 20
2.50742125984252
 30
0.0
 10
1.724692913385827
 20
2.5163031496063
 30
0.0
 10
1.724692913385827
 20
2.5163031496063
 30
0.0
  0
SPLINE
  5
5C
330
1F
100
AcDbEntity
  8
LAYER_1
 62
   250
100
AcDbSpline
210
0.0
220
0.0
230
1.0
 70
    11
 71
     3
 72
    44
 73
    40
 74
     0
 42
0.0000000001
 43
0.0000000001
 40
0.0
 40
0.0
 40
0.0
 40
0.0
 40
0.1
 40
0.1
 40
0.1
 40
0.1
 40
0.2
 40
0.2
 40
0.2
 40
0.2
 40
0.3
 40
0.3
 40
0.3
 40
0.3
 40
0.4
 40
0.4
 40
0.4
 40
0.4
 40
0.5
 40
0.5
 40
0.5
 40
0.5
 40
0.6
 40
0.6
 40
0.6
 40
0.6
 40
0.7
 40
0.7
 40
0.7
 40
0.7
 40
0.7999999999999999
 40
0.7999999999999999
 40
0.7999999999999999
 40
0.7999999999999999
 40
0.8999999999999999
 40
0.8999999999999999
 40
0.8999999999999999
 40
0.8999999999999999
 40
1.0
 40
1.0
 40
1.0
 40
1.0
 10
1.69790157480315
 20
2.476566929133858
 30
0.0
 10
1.69790157480315
 20
2.476566929133858
 30
0.0
 10
1.700141732283465
 20
3.229669291338583
 30
0.0
 10
1.700141732283465
 20
3.229669291338583
 30
0.0
 10
1.700141732283465
 20
3.229669291338583
 30
0.0
 10
1.700141732283465
 20
3.229669291338583
 30
0.0
 10
1.695933070866142
 20
3.218181102362205
 30
0.0
 10
1.695933070866142
 20
3.218181102362205
 30
0.0
 10
1.695933070866142
 20
3.218181102362205
 30
0.0
 10
1.695933070866142
 20
3.218181102362205
 30
0.0
 10
1.692854330708661
 20
3.206204724409449
 30
0.0
 10
1.692854330708661
 20
3.206204724409449
 30
0.0
 10
1.692854330708661
 20
3.206204724409449
 30
0.0
 10
1.692854330708661
 20
3.206204724409449
 30
0.0
 10
1.69096062992126
 20
3.193795275590551
 30
0.0
 10
1.69096062992126
 20
3.193795275590551
 30
0.0
 10
1.69096062992126
 20
3.193795275590551
 30
0.0
 10
1.69096062992126
 20
3.193795275590551
 30
0.0
 10
1.690318897637795
 20
3.181023622047244
 30
0.0
 10
1.690318897637795
 20
3.181023622047244
 30
0.0
 10
1.690318897637795
 20
3.181023622047244
 30
0.0
 10
1.690318897637795
 20
3.181023622047244
 30
0.0
 10
1.68807874015748
 20
2.42792125984252
 30
0.0
 10
1.68807874015748
 20
2.42792125984252
 30
0.0
 10
1.68807874015748
 20
2.42792125984252
 30
0.0
 10
1.68807874015748
 20
2.42792125984252
 30
0.0
 10
1.688720472440945
 20
2.440692913385827
 30
0.0
 10
1.688720472440945
 20
2.440692913385827
 30
0.0
 10
1.688720472440945
 20
2.440692913385827
 30
0.0
 10
1.688720472440945
 20
2.440692913385827
 30
0.0
 10
1.690614173228347
 20
2.453102362204724
 30
0.0
 10
1.690614173228347
 20
2.453102362204724
 30
0.0
 10
1.690614173228347
 20
2.453102362204724
 30
0.0
 10
1.690614173228347
 20
2.453102362204724
 30
0.0
 10
1.693692913385827
 20
2.46507874015748
 30
0.0
 10
1.693692913385827
 20
2.46507874015748
 30
0.0
 10
1.693692913385827
 20
2.46507874015748
 30
0.0
 10
1.693692913385827
 20
2.46507874015748
 30
0.0
 10
1.69790157480315
 20
2.476566929133858
 30
0.0
 10
1.69790157480315
 20
2.476566929133858
 30
0.0
  0
SPLINE
  5
5D
330
1F
100
AcDbEntity
  8
LAYER_1
 62
   250
100
AcDbSpline
210
0.0
220
0.0
230
1.0
 70
    11
 71
     3
 72
   260
 73
   256
 74
     0
 42
0.0000000001
 43
0.0000000001
 40
0.0
 40
0.0
 40
0.0
 40
0.0
 40
0.015625
 40
0.015625
 40
0.015625
 40
0.015625
 40
0.03125
 40
0.03125
 40
0.03125
 40
0.03125
 40
0.046875
 40
0.046875
 40
0.046875
 40
0.046875
 40
0.0625
 40
0.0625
 40
0.0625
 40
0.0625
 40
0.078125
 40
0.078125
 40
0.078125
 40
0.078125
 40
0.09375
 40
0.09375
 40
0.09375
 40
0.09375
 40
0.109375
 40
0.109375
 40
0.109375
 40
0.109375
 40
0.125
 40
0.125
 40
0.125
 40
0.125
 40
0.140625
 40
0.140625
 40
0.140625
 40
0.140625
 40
0.15625
 40
0.15625
 40
0.15625
 40
0.15625
 40
0.171875
 40
0.171875
 40
0.171875
 40
0.171875
 40
0.1875
 40
0.1875
 40
0.1875
 40
0.1875
 40
0.203125
 40
0.203125
 40
0.203125
 40
0.203125
 40
0.21875
 40
0.21875
 40
0.21875
 40
0.21875
 40
0.234375
 40
0.234375
 40
0.234375
 40
0.234375
 40
0.25
 40
0.25
 40
0.25
 40
0.25
 40
0.265625
 40
0.265625
 40
0.265625
 40
0.265625
 40
0.28125
 40
0.28125
 40
0.28125
 40
0.28125
 40
0.296875
 40
0.296875
 40
0.296875
 40
0.296875
 40
0.3125
 40
0.3125
 40
0.3125
 40
0.3125
 40
0.328125
 40
0.328125
 40
0.328125
 40
0.328125
 40
0.34375
 40
0.34375
 40
0.34375
 40
0.34375
 40
0.359375
 40
0.359375
 40
0.359375
 40
0.359375
 40
0.375
 40
0.375
 40
0.375
 40
0.375
 40
0.390625
 40
0.390625
 40
0.390625
 40
0.390625
 40
0.40625
 40
0.40625
 40
0.40625
 40
0.40625
 40
0.421875
 40
0.421875
 40
0.421875
 40
0.421875
 40
0.4375
 40
0.4375
 40
0.4375
 40
0.4375
 40
0.453125
 40
0.453125
 40
0.453125
 40
0.453125
 40
0.46875
 40
0.46875
 40
0.46875
 40
0.46875
 40
0.484375
 40
0.484375
 40
0.484375
 40
0.484375
 40
0.5
 40
0.5
 40
0.5
 40
0.5
 40
0.515625
 40
0.515625
 40
0.515625
 40
0.515625
 40
0.53125
 40
0.53125
 40
0.53125
 40
0.53125
 40
0.546875
 40
0.546875
 40
0.546875
 40
0.546875
 40
0.5625
 40
0.5625
 40
0.5625
 40
0.5625
 40
0.578125
 40
0.578125
 40
0.578125
 40
0.578125
 40
0.59375
 40
0.59375
 40
0.59375
 40
0.59375
 40
0.609375
 40
0.609375
 40
0.609375
 40
0.609375
 40
0.625
 40
0.625
 40
0.625
 40
0.625
 40
0.640625
 40
0.640625
 40
0.640625
 40
0.640625
 40
0.65625
 40
0.65625
 40
0.65625
 40
0.65625
 40
0.671875
 40
0.671875
 40
0.671875
 40
0.671875
 40
0.6875
 40
0.6875
 40
0.6875
 40
0.6875
 40
0.703125
 40
0.703125
 40
0.703125
 40
0.703125
 40
0.71875
 40
0.71875
 40
0.71875
 40
0.71875
 40
0.734375
 40
0.734375
 40
0.734375
 40
0.734375
 40
0.75
 40
0.75
 40
0.75
 40
0.75
 40
0.765625
 40
0.765625
 40
0.765625
 40
0.765625
 40
0.78125
 40
0.78125
 40
0.78125
 40
0.78125
 40
0.796875
 40
0.796875
 40
0.796875
 40
0.796875
 40
0.8125
 40
0.8125
 40
0.8125
 40
0.8125
 40
0.828125
 40
0.828125
 40
0.828125
 40
0.828125
 40
0.84375
 40
0.84375
 40
0.84375
 40
0.84375
 40
0.859375
 40
0.859375
 40
0.859375
 40
0.859375
 40
0.875
 40
0.875
 40
0.875
 40
0.875
 40
0.890625
 40
0.890625
 40
0.890625
 40
0.890625
 40
0.90625
 40
0.90625
 40
0.90625
 40
0.90625
 40
0.921875
 40
0.921875
 40
0.921875
 40
0.921875
 40
0.9375
 40
0.9375
 40
0.9375
 40
0.9375
 40
0.953125
 40
0.953125
 40
0.953125
 40
0.953125
 40
0.96875
 40
0.96875
 40
0.96875
 40
0.96875
 40
0.984375
 40
0.984375
 40
0.984375
 40
0.984375
 40
1.0
 40
1.0
 40
1.0
 40
1.0
 10
1.937429133858268
 20
2.440692913385827
 30
0.0
 10
1.937429133858268
 20
2.440692913385827
 30
0.0
 10
1.939669291338583
 20
3.193795275590551
 30
0.0
 10
1.939669291338583
 20
3.193795275590551
 30
0.0
 10
1.939669291338583
 20
3.193795275590551
 30
0.0
 10
1.939669291338583
 20
3.193795275590551
 30
0.0
 10
1.937775590551181
 20
3.206204724409449
 30
0.0
 10
1.937775590551181
 20
3.206204724409449
 30
0.0
 10
1.937775590551181
 20
3.206204724409449
 30
0.0
 10
1.937775590551181
 20
3.206204724409449
 30
0.0
 10
1.934692913385827
 20
3.218181102362205
 30
0.0
 10
1.934692913385827
 20
3.218181102362205
 30
0.0
 10
1.934692913385827
 20
3.218181102362205
 30
0.0
 10
1.934692913385827
 20
3.218181102362205
 30
0.0
 10
1.930492125984252
 20
3.229669291338583
 30
0.0
 10
1.930492125984252
 20
3.229669291338583
 30
0.0
 10
1.930492125984252
 20
3.229669291338583
 30
0.0
 10
1.930492125984252
 20
3.229669291338583
 30
0.0
 10
1.925224409448819
 20
3.240590551181103
 30
0.0
 10
1.925224409448819
 20
3.240590551181103
 30
0.0
 10
1.925224409448819
 20
3.240590551181103
 30
0.0
 10
1.925224409448819
 20
3.240590551181103
 30
0.0
 10
1.91896062992126
 20
3.25090157480315
 30
0.0
 10
1.91896062992126
 20
3.25090157480315
 30
0.0
 10
1.91896062992126
 20
3.25090157480315
 30
0.0
 10
1.91896062992126
 20
3.25090157480315
 30
0.0
 10
1.911763779527559
 20
3.260523622047244
 30
0.0
 10
1.911763779527559
 20
3.260523622047244
 30
0.0
 10
1.911763779527559
 20
3.260523622047244
 30
0.0
 10
1.911763779527559
 20
3.260523622047244
 30
0.0
 10
1.903700787401575
 20
3.269405511811024
 30
0.0
 10
1.903700787401575
 20
3.269405511811024
 30
0.0
 10
1.903700787401575
 20
3.269405511811024
 30
0.0
 10
1.903700787401575
 20
3.269405511811024
 30
0.0
 10
1.894818897637795
 20
3.277468503937008
 30
0.0
 10
1.894818897637795
 20
3.277468503937008
 30
0.0
 10
1.894818897637795
 20
3.277468503937008
 30
0.0
 10
1.894818897637795
 20
3.277468503937008
 30
0.0
 10
1.885196850393701
 20
3.284665354330709
 30
0.0
 10
1.885196850393701
 20
3.284665354330709
 30
0.0
 10
1.885196850393701
 20
3.284665354330709
 30
0.0
 10
1.885196850393701
 20
3.284665354330709
 30
0.0
 10
1.874885826771654
 20
3.290929133858268
 30
0.0
 10
1.874885826771654
 20
3.290929133858268
 30
0.0
 10
1.874885826771654
 20
3.290929133858268
 30
0.0
 10
1.874885826771654
 20
3.290929133858268
 30
0.0
 10
1.863964566929134
 20
3.296196850393701
 30
0.0
 10
1.863964566929134
 20
3.296196850393701
 30
0.0
 10
1.863964566929134
 20
3.296196850393701
 30
0.0
 10
1.863964566929134
 20
3.296196850393701
 30
0.0
 10
1.852476377952756
 20
3.300397637795276
 30
0.0
 10
1.852476377952756
 20
3.300397637795276
 30
0.0
 10
1.852476377952756
 20
3.300397637795276
 30
0.0
 10
1.852476377952756
 20
3.300397637795276
 30
0.0
 10
1.8405
 20
3.30348031496063
 30
0.0
 10
1.8405
 20
3.30348031496063
 30
0.0
 10
1.8405
 20
3.30348031496063
 30
0.0
 10
1.8405
 20
3.30348031496063
 30
0.0
 10
1.828090551181103
 20
3.305374015748032
 30
0.0
 10
1.828090551181103
 20
3.305374015748032
 30
0.0
 10
1.828090551181103
 20
3.305374015748032
 30
0.0
 10
1.828090551181103
 20
3.305374015748032
 30
0.0
 10
1.815318897637795
 20
3.306023622047244
 30
0.0
 10
1.815318897637795
 20
3.306023622047244
 30
0.0
 10
1.815318897637795
 20
3.306023622047244
 30
0.0
 10
1.815318897637795
 20
3.306023622047244
 30
0.0
 10
1.802535433070866
 20
3.305374015748032
 30
0.0
 10
1.802535433070866
 20
3.305374015748032
 30
0.0
 10
1.802535433070866
 20
3.305374015748032
 30
0.0
 10
1.802535433070866
 20
3.305374015748032
 30
0.0
 10
1.790125984251969
 20
3.30348031496063
 30
0.0
 10
1.790125984251969
 20
3.30348031496063
 30
0.0
 10
1.790125984251969
 20
3.30348031496063
 30
0.0
 10
1.790125984251969
 20
3.30348031496063
 30
0.0
 10
1.778145669291339
 20
3.300397637795276
 30
0.0
 10
1.778145669291339
 20
3.300397637795276
 30
0.0
 10
1.778145669291339
 20
3.300397637795276
 30
0.0
 10
1.778145669291339
 20
3.300397637795276
 30
0.0
 10
1.766665354330709
 20
3.296196850393701
 30
0.0
 10
1.766665354330709
 20
3.296196850393701
 30
0.0
 10
1.766665354330709
 20
3.296196850393701
 30
0.0
 10
1.766665354330709
 20
3.296196850393701
 30
0.0
 10
1.755736220472441
 20
3.290929133858268
 30
0.0
 10
1.755736220472441
 20
3.290929133858268
 30
0.0
 10
1.755736220472441
 20
3.290929133858268
 30
0.0
 10
1.755736220472441
 20
3.290929133858268
 30
0.0
 10
1.745429133858268
 20
3.284665354330709
 30
0.0
 10
1.745429133858268
 20
3.284665354330709
 30
0.0
 10
1.745429133858268
 20
3.284665354330709
 30
0.0
 10
1.745429133858268
 20
3.284665354330709
 30
0.0
 10
1.735803149606299
 20
3.277468503937008
 30
0.0
 10
1.735803149606299
 20
3.277468503937008
 30
0.0
 10
1.735803149606299
 20
3.277468503937008
 30
0.0
 10
1.735803149606299
 20
3.277468503937008
 30
0.0
 10
1.726933070866142
 20
3.269405511811024
 30
0.0
 10
1.726933070866142
 20
3.269405511811024
 30
0.0
 10
1.726933070866142
 20
3.269405511811024
 30
0.0
 10
1.726933070866142
 20
3.269405511811024
 30
0.0
 10
1.718858267716536
 20
3.260523622047244
 30
0.0
 10
1.718858267716536
 20
3.260523622047244
 30
0.0
 10
1.718858267716536
 20
3.260523622047244
 30
0.0
 10
1.718858267716536
 20
3.260523622047244
 30
0.0
 10
1.711665354330709
 20
3.25090157480315
 30
0.0
 10
1.711665354330709
 20
3.25090157480315
 30
0.0
 10
1.711665354330709
 20
3.25090157480315
 30
0.0
 10
1.711665354330709
 20
3.25090157480315
 30
0.0
 10
1.70540157480315
 20
3.240590551181103
 30
0.0
 10
1.70540157480315
 20
3.240590551181103
 30
0.0
 10
1.70540157480315
 20
3.240590551181103
 30
0.0
 10
1.70540157480315
 20
3.240590551181103
 30
0.0
 10
1.700141732283465
 20
3.229669291338583
 30
0.0
 10
1.700141732283465
 20
3.229669291338583
 30
0.0
 10
1.700141732283465
 20
3.229669291338583
 30
0.0
 10
1.700141732283465
 20
3.229669291338583
 30
0.0
 10
1.695933070866142
 20
3.218181102362205
 30
0.0
 10
1.695933070866142
 20
3.218181102362205
 30
0.0
 10
1.695933070866142
 20
3.218181102362205
 30
0.0
 10
1.695933070866142
 20
3.218181102362205
 30
0.0
 10
1.692854330708661
 20
3.206204724409449
 30
0.0
 10
1.692854330708661
 20
3.206204724409449
 30
0.0
 10
1.692854330708661
 20
3.206204724409449
 30
0.0
 10
1.692854330708661
 20
3.206204724409449
 30
0.0
 10
1.69096062992126
 20
3.193795275590551
 30
0.0
 10
1.69096062992126
 20
3.193795275590551
 30
0.0
 10
1.69096062992126
 20
3.193795275590551
 30
0.0
 10
1.69096062992126
 20
3.193795275590551
 30
0.0
 10
1.690318897637795
 20
3.181023622047244
 30
0.0
 10
1.690318897637795
 20
3.181023622047244
 30
0.0
 10
1.690318897637795
 20
3.181023622047244
 30
0.0
 10
1.690318897637795
 20
3.181023622047244
 30
0.0
 10
1.68807874015748
 20
2.42792125984252
 30
0.0
 10
1.68807874015748
 20
2.42792125984252
 30
0.0
 10
1.68807874015748
 20
2.42792125984252
 30
0.0
 10
1.68807874015748
 20
2.42792125984252
 30
0.0
 10
1.688720472440945
 20
2.440692913385827
 30
0.0
 10
1.688720472440945
 20
2.440692913385827
 30
0.0
 10
1.688720472440945
 20
2.440692913385827
 30
0.0
 10
1.688720472440945
 20
2.440692913385827
 30
0.0
 10
1.690614173228347
 20
2.453102362204724
 30
0.0
 10
1.690614173228347
 20
2.453102362204724
 30
0.0
 10
1.690614173228347
 20
2.453102362204724
 30
0.0
 10
1.690614173228347
 20
2.453102362204724
 30
0.0
 10
1.693692913385827
 20
2.46507874015748
 30
0.0
 10
1.693692913385827
 20
2.46507874015748
 30
0.0
 10
1.693692913385827
 20
2.46507874015748
 30
0.0
 10
1.693692913385827
 20
2.46507874015748
 30
0.0
 10
1.69790157480315
 20
2.476566929133858
 30
0.0
 10
1.69790157480315
 20
2.476566929133858
 30
0.0
 10
1.69790157480315
 20
2.476566929133858
 30
0.0
 10
1.69790157480315
 20
2.476566929133858
 30
0.0
 10
1.703161417322835
 20
2.487488188976378
 30
0.0
 10
1.703161417322835
 20
2.487488188976378
 30
0.0
 10
1.703161417322835
 20
2.487488188976378
 30
0.0
 10
1.703161417322835
 20
2.487488188976378
 30
0.0
 10
1.709425196850394
 20
2.497799212598425
 30
0.0
 10
1.709425196850394
 20
2.497799212598425
 30
0.0
 10
1.709425196850394
 20
2.497799212598425
 30
0.0
 10
1.709425196850394
 20
2.497799212598425
 30
0.0
 10
1.716618110236221
 20
2.50742125984252
 30
0.0
 10
1.716618110236221
 20
2.50742125984252
 30
0.0
 10
1.716618110236221
 20
2.50742125984252
 30
0.0
 10
1.716618110236221
 20
2.50742125984252
 30
0.0
 10
1.724692913385827
 20
2.5163031496063
 30
0.0
 10
1.724692913385827
 20
2.5163031496063
 30
0.0
 10
1.724692913385827
 20
2.5163031496063
 30
0.0
 10
1.724692913385827
 20
2.5163031496063
 30
0.0
 10
1.733562992125984
 20
2.524366141732283
 30
0.0
 10
1.733562992125984
 20
2.524366141732283
 30
0.0
 10
1.733562992125984
 20
2.524366141732283
 30
0.0
 10
1.733562992125984
 20
2.524366141732283
 30
0.0
 10
1.743188976377953
 20
2.531562992125985
 30
0.0
 10
1.743188976377953
 20
2.531562992125985
 30
0.0
 10
1.743188976377953
 20
2.531562992125985
 30
0.0
 10
1.743188976377953
 20
2.531562992125985
 30
0.0
 10
1.753496062992126
 20
2.537826771653543
 30
0.0
 10
1.753496062992126
 20
2.537826771653543
 30
0.0
 10
1.753496062992126
 20
2.537826771653543
 30
0.0
 10
1.753496062992126
 20
2.537826771653543
 30
0.0
 10
1.764425196850394
 20
2.543094488188976
 30
0.0
 10
1.764425196850394
 20
2.543094488188976
 30
0.0
 10
1.764425196850394
 20
2.543094488188976
 30
0.0
 10
1.764425196850394
 20
2.543094488188976
 30
0.0
 10
1.775905511811024
 20
2.547295275590551
 30
0.0
 10
1.775905511811024
 20
2.547295275590551
 30
0.0
 10
1.775905511811024
 20
2.547295275590551
 30
0.0
 10
1.775905511811024
 20
2.547295275590551
 30
0.0
 10
1.787885826771654
 20
2.550377952755905
 30
0.0
 10
1.787885826771654
 20
2.550377952755905
 30
0.0
 10
1.787885826771654
 20
2.550377952755905
 30
0.0
 10
1.787885826771654
 20
2.550377952755905
 30
0.0
 10
1.800295275590551
 20
2.552271653543307
 30
0.0
 10
1.800295275590551
 20
2.552271653543307
 30
0.0
 10
1.800295275590551
 20
2.552271653543307
 30
0.0
 10
1.800295275590551
 20
2.552271653543307
 30
0.0
 10
1.81307874015748
 20
2.55292125984252
 30
0.0
 10
1.81307874015748
 20
2.55292125984252
 30
0.0
 10
1.81307874015748
 20
2.55292125984252
 30
0.0
 10
1.81307874015748
 20
2.55292125984252
 30
0.0
 10
1.825850393700788
 20
2.552271653543307
 30
0.0
 10
1.825850393700788
 20
2.552271653543307
 30
0.0
 10
1.825850393700788
 20
2.552271653543307
 30
0.0
 10
1.825850393700788
 20
2.552271653543307
 30
0.0
 10
1.838259842519685
 20
2.550377952755905
 30
0.0
 10
1.838259842519685
 20
2.550377952755905
 30
0.0
 10
1.838259842519685
 20
2.550377952755905
 30
0.0
 10
1.838259842519685
 20
2.550377952755905
 30
0.0
 10
1.850236220472441
 20
2.547295275590551
 30
0.0
 10
1.850236220472441
 20
2.547295275590551
 30
0.0
 10
1.850236220472441
 20
2.547295275590551
 30
0.0
 10
1.850236220472441
 20
2.547295275590551
 30
0.0
 10
1.861724409448819
 20
2.543094488188976
 30
0.0
 10
1.861724409448819
 20
2.543094488188976
 30
0.0
 10
1.861724409448819
 20
2.543094488188976
 30
0.0
 10
1.861724409448819
 20
2.543094488188976
 30
0.0
 10
1.872645669291339
 20
2.537826771653543
 30
0.0
 10
1.872645669291339
 20
2.537826771653543
 30
0.0
 10
1.872645669291339
 20
2.537826771653543
 30
0.0
 10
1.872645669291339
 20
2.537826771653543
 30
0.0
 10
1.882956692913386
 20
2.531562992125985
 30
0.0
 10
1.882956692913386
 20
2.531562992125985
 30
0.0
 10
1.882956692913386
 20
2.531562992125985
 30
0.0
 10
1.882956692913386
 20
2.531562992125985
 30
0.0
 10
1.89257874015748
 20
2.524366141732283
 30
0.0
 10
1.89257874015748
 20
2.524366141732283
 30
0.0
 10
1.89257874015748
 20
2.524366141732283
 30
0.0
 10
1.89257874015748
 20
2.524366141732283
 30
0.0
 10
1.90146062992126
 20
2.5163031496063
 30
0.0
 10
1.90146062992126
 20
2.5163031496063
 30
0.0
 10
1.90146062992126
 20
2.5163031496063
 30
0.0
 10
1.90146062992126
 20
2.5163031496063
 30
0.0
 10
1.909523622047244
 20
2.50742125984252
 30
0.0
 10
1.909523622047244
 20
2.50742125984252
 30
0.0
 10
1.909523622047244
 20
2.50742125984252
 30
0.0
 10
1.909523622047244
 20
2.50742125984252
 30
0.0
 10
1.916720472440945
 20
2.497799212598425
 30
0.0
 10
1.916720472440945
 20
2.497799212598425
 30
0.0
 10
1.916720472440945
 20
2.497799212598425
 30
0.0
 10
1.916720472440945
 20
2.497799212598425
 30
0.0
 10
1.922984251968504
 20
2.487488188976378
 30
0.0
 10
1.922984251968504
 20
2.487488188976378
 30
0.0
 10
1.922984251968504
 20
2.487488188976378
 30
0.0
 10
1.922984251968504
 20
2.487488188976378
 30
0.0
 10
1.928251968503937
 20
2.476566929133858
 30
0.0
 10
1.928251968503937
 20
2.476566929133858
 30
0.0
 10
1.928251968503937
 20
2.476566929133858
 30
0.0
 10
1.928251968503937
 20
2.476566929133858
 30
0.0
 10
1.932452755905512
 20
2.46507874015748
 30
0.0
 10
1.932452755905512
 20
2.46507874015748
 30
0.0
 10
1.932452755905512
 20
2.46507874015748
 30
0.0
 10
1.932452755905512
 20
2.46507874015748
 30
0.0
 10
1.935535433070866
 20
2.453102362204724
 30
0.0
 10
1.935535433070866
 20
2.453102362204724
 30
0.0
 10
1.935535433070866
 20
2.453102362204724
 30
0.0
 10
1.935535433070866
 20
2.453102362204724
 30
0.0
 10
1.937429133858268
 20
2.440692913385827
 30
0.0
 10
1.937429133858268
 20
2.440692913385827
 30
0.0
  0
SPLINE
  5
5E
330
1F
100
AcDbEntity
  8
LAYER_1
 62
   252
100
AcDbSpline
210
0.0
220
0.0
230
1.0
 70
    11
 71
     3
 72
    20
 73
    16
 74
     0
 42
0.0000000001
 43
0.0000000001
 40
0.0
 40
0.0
 40
0.0
 40
0.0
 40
0.25
 40
0.25
 40
0.25
 40
0.25
 40
0.5
 40
0.5
 40
0.5
 40
0.5
 40
0.75
 40
0.75
 40
0.75
 40
0.75
 40
1.0
 40
1.0
 40
1.0
 40
1.0
 10
1.68807874015748
 20
2.42792125984252
 30
0.0
 10
1.68807874015748
 20
2.42792125984252
 30
0.0
 10
1.690318897637795
 20
3.181023622047244
 30
0.0
 10
1.690318897637795
 20
3.181023622047244
 30
0.0
 10
1.690318897637795
 20
3.181023622047244
 30
0.0
 10
1.690318897637795
 20
3.181023622047244
 30
0.0
 10
-1.808334645669292
 20
3.181023622047244
 30
0.0
 10
-1.808334645669292
 20
3.181023622047244
 30
0.0
 10
-1.808334645669292
 20
3.181023622047244
 30
0.0
 10
-1.808334645669292
 20
3.181023622047244
 30
0.0
 10
-1.810574803149606
 20
2.42792125984252
 30
0.0
 10
-1.810574803149606
 20
2.42792125984252
 30
0.0
 10
-1.810574803149606
 20
2.42792125984252
 30
0.0
 10
-1.810574803149606
 20
2.42792125984252
 30
0.0
 10
1.68807874015748
 20
2.42792125984252
 30
0.0
 10
1.68807874015748
 20
2.42792125984252
 30
0.0
  0
SPLINE
  5
5F
330
1F
100
AcDbEntity
  8
LAYER_1
 62
   250
100
AcDbSpline
210
0.0
220
0.0
230
1.0
 70
    11
 71
     3
 72
    20
 73
    16
 74
     0
 42
0.0000000001
 43
0.0000000001
 40
0.0
 40
0.0
 40
0.0
 40
0.0
 40
0.25
 40
0.25
 40
0.25
 40
0.25
 40
0.5
 40
0.5
 40
0.5
 40
0.5
 40
0.75
 40
0.75
 40
0.75
 40
0.75
 40
1.0
 40
1.0
 40
1.0
 40
1.0
 10
1.68807874015748
 20
2.42792125984252
 30
0.0
 10
1.68807874015748
 20
2.42792125984252
 30
0.0
 10
1.690318897637795
 20
3.181023622047244
 30
0.0
 10
1.690318897637795
 20
3.181023622047244
 30
0.0
 10
1.690318897637795
 20
3.181023622047244
 30
0.0
 10
1.690318897637795
 20
3.181023622047244
 30
0.0
 10
-1.808334645669292
 20
3.181023622047244
 30
0.0
 10
-1.808334645669292
 20
3.181023622047244
 30
0.0
 10
-1.808334645669292
 20
3.181023622047244
 30
0.0
 10
-1.808334645669292
 20
3.181023622047244
 30
0.0
 10
-1.810574803149606
 20
2.42792125984252
 30
0.0
 10
-1.810574803149606
 20
2.42792125984252
 30
0.0
 10
-1.810574803149606
 20
2.42792125984252
 30
0.0
 10
-1.810574803149606
 20
2.42792125984252
 30
0.0
 10
1.68807874015748
 20
2.42792125984252
 30
0.0
 10
1.68807874015748
 20
2.42792125984252
 30
0.0
  0
SPLINE
  5
60
330
1F
100
AcDbEntity
  8
LAYER_1
 62
   252
100
AcDbSpline
210
0.0
220
0.0
230
1.0
 70
    11
 71
     3
 72
    44
 73
    40
 74
     0
 42
0.0000000001
 43
0.0000000001
 40
0.0
 40
0.0
 40
0.0
 40
0.0
 40
0.1
 40
0.1
 40
0.1
 40
0.1
 40
0.2
 40
0.2
 40
0.2
 40
0.2
 40
0.3
 40
0.3
 40
0.3
 40
0.3
 40
0.4
 40
0.4
 40
0.4
 40
0.4
 40
0.5
 40
0.5
 40
0.5
 40
0.5
 40
0.6
 40
0.6
 40
0.6
 40
0.6
 40
0.7
 40
0.7
 40
0.7
 40
0.7
 40
0.7999999999999999
 40
0.7999999999999999
 40
0.7999999999999999
 40
0.7999999999999999
 40
0.8999999999999999
 40
0.8999999999999999
 40
0.8999999999999999
 40
0.8999999999999999
 40
1.0
 40
1.0
 40
1.0
 40
1.0
 10
-1.810574803149606
 20
2.42792125984252
 30
0.0
 10
-1.810574803149606
 20
2.42792125984252
 30
0.0
 10
-1.808334645669292
 20
3.181023622047244
 30
0.0
 10
-1.808334645669292
 20
3.181023622047244
 30
0.0
 10
-1.808334645669292
 20
3.181023622047244
 30
0.0
 10
-1.808334645669292
 20
3.181023622047244
 30
0.0
 10
-1.808976377952756
 20
3.193795275590551
 30
0.0
 10
-1.808976377952756
 20
3.193795275590551
 30
0.0
 10
-1.808976377952756
 20
3.193795275590551
 30
0.0
 10
-1.808976377952756
 20
3.193795275590551
 30
0.0
 10
-1.810870078740158
 20
3.206204724409449
 30
0.0
 10
-1.810870078740158
 20
3.206204724409449
 30
0.0
 10
-1.810870078740158
 20
3.206204724409449
 30
0.0
 10
-1.810870078740158
 20
3.206204724409449
 30
0.0
 10
-1.813948818897638
 20
3.218181102362205
 30
0.0
 10
-1.813948818897638
 20
3.218181102362205
 30
0.0
 10
-1.813948818897638
 20
3.218181102362205
 30
0.0
 10
-1.813948818897638
 20
3.218181102362205
 30
0.0
 10
-1.818157480314961
 20
3.229669291338583
 30
0.0
 10
-1.818157480314961
 20
3.229669291338583
 30
0.0
 10
-1.818157480314961
 20
3.229669291338583
 30
0.0
 10
-1.818157480314961
 20
3.229669291338583
 30
0.0
 10
-1.820397637795276
 20
2.476566929133858
 30
0.0
 10
-1.820397637795276
 20
2.476566929133858
 30
0.0
 10
-1.820397637795276
 20
2.476566929133858
 30
0.0
 10
-1.820397637795276
 20
2.476566929133858
 30
0.0
 10
-1.816188976377953
 20
2.46507874015748
 30
0.0
 10
-1.816188976377953
 20
2.46507874015748
 30
0.0
 10
-1.816188976377953
 20
2.46507874015748
 30
0.0
 10
-1.816188976377953
 20
2.46507874015748
 30
0.0
 10
-1.813110236220473
 20
2.453102362204724
 30
0.0
 10
-1.813110236220473
 20
2.453102362204724
 30
0.0
 10
-1.813110236220473
 20
2.453102362204724
 30
0.0
 10
-1.813110236220473
 20
2.453102362204724
 30
0.0
 10
-1.811216535433071
 20
2.440692913385827
 30
0.0
 10
-1.811216535433071
 20
2.440692913385827
 30
0.0
 10
-1.811216535433071
 20
2.440692913385827
 30
0.0
 10
-1.811216535433071
 20
2.440692913385827
 30
0.0
 10
-1.810574803149606
 20
2.42792125984252
 30
0.0
 10
-1.810574803149606
 20
2.42792125984252
 30
0.0
  0
SPLINE
  5
61
330
1F
100
AcDbEntity
  8
LAYER_1
 62
   253
100
AcDbSpline
210
0.0
220
0.0
230
1.0
 70
    11
 71
     3
 72
    44
 73
    40
 74
     0
 42
0.0000000001
 43
0.0000000001
 40
0.0
 40
0.0
 40
0.0
 40
0.0
 40
0.1
 40
0.1
 40
0.1
 40
0.1
 40
0.2
 40
0.2
 40
0.2
 40
0.2
 40
0.3
 40
0.3
 40
0.3
 40
0.3
 40
0.4
 40
0.4
 40
0.4
 40
0.4
 40
0.5
 40
0.5
 40
0.5
 40
0.5
 40
0.6
 40
0.6
 40
0.6
 40
0.6
 40
0.7
 40
0.7
 40
0.7
 40
0.7
 40
0.7999999999999999
 40
0.7999999999999999
 40
0.7999999999999999
 40
0.7999999999999999
 40
0.8999999999999999
 40
0.8999999999999999
 40
0.8999999999999999
 40
0.8999999999999999
 40
1.0
 40
1.0
 40
1.0
 40
1.0
 10
-1.820397637795276
 20
2.476566929133858
 30
0.0
 10
-1.820397637795276
 20
2.476566929133858
 30
0.0
 10
-1.818157480314961
 20
3.229669291338583
 30
0.0
 10
-1.818157480314961
 20
3.229669291338583
 30
0.0
 10
-1.818157480314961
 20
3.229669291338583
 30
0.0
 10
-1.818157480314961
 20
3.229669291338583
 30
0.0
 10
-1.823417322834646
 20
3.240590551181103
 30
0.0
 10
-1.823417322834646
 20
3.240590551181103
 30
0.0
 10
-1.823417322834646
 20
3.240590551181103
 30
0.0
 10
-1.823417322834646
 20
3.240590551181103
 30
0.0
 10
-1.829681102362205
 20
3.25090157480315
 30
0.0
 10
-1.829681102362205
 20
3.25090157480315
 30
0.0
 10
-1.829681102362205
 20
3.25090157480315
 30
0.0
 10
-1.829681102362205
 20
3.25090157480315
 30
0.0
 10
-1.836874015748032
 20
3.260523622047244
 30
0.0
 10
-1.836874015748032
 20
3.260523622047244
 30
0.0
 10
-1.836874015748032
 20
3.260523622047244
 30
0.0
 10
-1.836874015748032
 20
3.260523622047244
 30
0.0
 10
-1.844948818897638
 20
3.269405511811024
 30
0.0
 10
-1.844948818897638
 20
3.269405511811024
 30
0.0
 10
-1.844948818897638
 20
3.269405511811024
 30
0.0
 10
-1.844948818897638
 20
3.269405511811024
 30
0.0
 10
-1.847188976377953
 20
2.5163031496063
 30
0.0
 10
-1.847188976377953
 20
2.5163031496063
 30
0.0
 10
-1.847188976377953
 20
2.5163031496063
 30
0.0
 10
-1.847188976377953
 20
2.5163031496063
 30
0.0
 10
-1.839114173228347
 20
2.50742125984252
 30
0.0
 10
-1.839114173228347
 20
2.50742125984252
 30
0.0
 10
-1.839114173228347
 20
2.50742125984252
 30
0.0
 10
-1.839114173228347
 20
2.50742125984252
 30
0.0
 10
-1.83192125984252
 20
2.497799212598425
 30
0.0
 10
-1.83192125984252
 20
2.497799212598425
 30
0.0
 10
-1.83192125984252
 20
2.497799212598425
 30
0.0
 10
-1.83192125984252
 20
2.497799212598425
 30
0.0
 10
-1.825657480314961
 20
2.487488188976378
 30
0.0
 10
-1.825657480314961
 20
2.487488188976378
 30
0.0
 10
-1.825657480314961
 20
2.487488188976378
 30
0.0
 10
-1.825657480314961
 20
2.487488188976378
 30
0.0
 10
-1.820397637795276
 20
2.476566929133858
 30
0.0
 10
-1.820397637795276
 20
2.476566929133858
 30
0.0
  0
SPLINE
  5
62
330
1F
100
AcDbEntity
  8
LAYER_1
 62
   253
100
AcDbSpline
210
0.0
220
0.0
230
1.0
 70
    11
 71
     3
 72
    44
 73
    40
 74
     0
 42
0.0000000001
 43
0.0000000001
 40
0.0
 40
0.0
 40
0.0
 40
0.0
 40
0.1
 40
0.1
 40
0.1
 40
0.1
 40
0.2
 40
0.2
 40
0.2
 40
0.2
 40
0.3
 40
0.3
 40
0.3
 40
0.3
 40
0.4
 40
0.4
 40
0.4
 40
0.4
 40
0.5
 40
0.5
 40
0.5
 40
0.5
 40
0.6
 40
0.6
 40
0.6
 40
0.6
 40
0.7
 40
0.7
 40
0.7
 40
0.7
 40
0.7999999999999999
 40
0.7999999999999999
 40
0.7999999999999999
 40
0.7999999999999999
 40
0.8999999999999999
 40
0.8999999999999999
 40
0.8999999999999999
 40
0.8999999999999999
 40
1.0
 40
1.0
 40
1.0
 40
1.0
 10
-1.847188976377953
 20
2.5163031496063
 30
0.0
 10
-1.847188976377953
 20
2.5163031496063
 30
0.0
 10
-1.844948818897638
 20
3.269405511811024
 30
0.0
 10
-1.844948818897638
 20
3.269405511811024
 30
0.0
 10
-1.844948818897638
 20
3.269405511811024
 30
0.0
 10
-1.844948818897638
 20
3.269405511811024
 30
0.0
 10
-1.853818897637795
 20
3.277468503937008
 30
0.0
 10
-1.853818897637795
 20
3.277468503937008
 30
0.0
 10
-1.853818897637795
 20
3.277468503937008
 30
0.0
 10
-1.853818897637795
 20
3.277468503937008
 30
0.0
 10
-1.863444881889764
 20
3.284665354330709
 30
0.0
 10
-1.863444881889764
 20
3.284665354330709
 30
0.0
 10
-1.863444881889764
 20
3.284665354330709
 30
0.0
 10
-1.863444881889764
 20
3.284665354330709
 30
0.0
 10
-1.873751968503937
 20
3.290929133858268
 30
0.0
 10
-1.873751968503937
 20
3.290929133858268
 30
0.0
 10
-1.873751968503937
 20
3.290929133858268
 30
0.0
 10
-1.873751968503937
 20
3.290929133858268
 30
0.0
 10
-1.884681102362205
 20
3.296196850393701
 30
0.0
 10
-1.884681102362205
 20
3.296196850393701
 30
0.0
 10
-1.884681102362205
 20
3.296196850393701
 30
0.0
 10
-1.884681102362205
 20
3.296196850393701
 30
0.0
 10
-1.88692125984252
 20
2.543094488188976
 30
0.0
 10
-1.88692125984252
 20
2.543094488188976
 30
0.0
 10
-1.88692125984252
 20
2.543094488188976
 30
0.0
 10
-1.88692125984252
 20
2.543094488188976
 30
0.0
 10
-1.875992125984252
 20
2.537826771653543
 30
0.0
 10
-1.875992125984252
 20
2.537826771653543
 30
0.0
 10
-1.875992125984252
 20
2.537826771653543
 30
0.0
 10
-1.875992125984252
 20
2.537826771653543
 30
0.0
 10
-1.865685039370079
 20
2.531562992125985
 30
0.0
 10
-1.865685039370079
 20
2.531562992125985
 30
0.0
 10
-1.865685039370079
 20
2.531562992125985
 30
0.0
 10
-1.865685039370079
 20
2.531562992125985
 30
0.0
 10
-1.85605905511811
 20
2.524366141732283
 30
0.0
 10
-1.85605905511811
 20
2.524366141732283
 30
0.0
 10
-1.85605905511811
 20
2.524366141732283
 30
0.0
 10
-1.85605905511811
 20
2.524366141732283
 30
0.0
 10
-1.847188976377953
 20
2.5163031496063
 30
0.0
 10
-1.847188976377953
 20
2.5163031496063
 30
0.0
  0
SPLINE
  5
63
330
1F
100
AcDbEntity
  8
LAYER_1
 62
   252
100
AcDbSpline
210
0.0
220
0.0
230
1.0
 70
    11
 71
     3
 72
    44
 73
    40
 74
     0
 42
0.0000000001
 43
0.0000000001
 40
0.0
 40
0.0
 40
0.0
 40
0.0
 40
0.1
 40
0.1
 40
0.1
 40
0.1
 40
0.2
 40
0.2
 40
0.2
 40
0.2
 40
0.3
 40
0.3
 40
0.3
 40
0.3
 40
0.4
 40
0.4
 40
0.4
 40
0.4
 40
0.5
 40
0.5
 40
0.5
 40
0.5
 40
0.6
 40
0.6
 40
0.6
 40
0.6
 40
0.7
 40
0.7
 40
0.7
 40
0.7
 40
0.7999999999999999
 40
0.7999999999999999
 40
0.7999999999999999
 40
0.7999999999999999
 40
0.8999999999999999
 40
0.8999999999999999
 40
0.8999999999999999
 40
0.8999999999999999
 40
1.0
 40
1.0
 40
1.0
 40
1.0
 10
-1.88692125984252
 20
2.543094488188976
 30
0.0
 10
-1.88692125984252
 20
2.543094488188976
 30
0.0
 10
-1.884681102362205
 20
3.296196850393701
 30
0.0
 10
-1.884681102362205
 20
3.296196850393701
 30
0.0
 10
-1.884681102362205
 20
3.296196850393701
 30
0.0
 10
-1.884681102362205
 20
3.296196850393701
 30
0.0
 10
-1.896161417322835
 20
3.300397637795276
 30
0.0
 10
-1.896161417322835
 20
3.300397637795276
 30
0.0
 10
-1.896161417322835
 20
3.300397637795276
 30
0.0
 10
-1.896161417322835
 20
3.300397637795276
 30
0.0
 10
-1.908141732283465
 20
3.30348031496063
 30
0.0
 10
-1.908141732283465
 20
3.30348031496063
 30
0.0
 10
-1.908141732283465
 20
3.30348031496063
 30
0.0
 10
-1.908141732283465
 20
3.30348031496063
 30
0.0
 10
-1.920551181102362
 20
3.305374015748032
 30
0.0
 10
-1.920551181102362
 20
3.305374015748032
 30
0.0
 10
-1.920551181102362
 20
3.305374015748032
 30
0.0
 10
-1.920551181102362
 20
3.305374015748032
 30
0.0
 10
-1.933334645669292
 20
3.306023622047244
 30
0.0
 10
-1.933334645669292
 20
3.306023622047244
 30
0.0
 10
-1.933334645669292
 20
3.306023622047244
 30
0.0
 10
-1.933334645669292
 20
3.306023622047244
 30
0.0
 10
-1.935574803149606
 20
2.55292125984252
 30
0.0
 10
-1.935574803149606
 20
2.55292125984252
 30
0.0
 10
-1.935574803149606
 20
2.55292125984252
 30
0.0
 10
-1.935574803149606
 20
2.55292125984252
 30
0.0
 10
-1.922791338582677
 20
2.552271653543307
 30
0.0
 10
-1.922791338582677
 20
2.552271653543307
 30
0.0
 10
-1.922791338582677
 20
2.552271653543307
 30
0.0
 10
-1.922791338582677
 20
2.552271653543307
 30
0.0
 10
-1.91038188976378
 20
2.550377952755905
 30
0.0
 10
-1.91038188976378
 20
2.550377952755905
 30
0.0
 10
-1.91038188976378
 20
2.550377952755905
 30
0.0
 10
-1.91038188976378
 20
2.550377952755905
 30
0.0
 10
-1.89840157480315
 20
2.547295275590551
 30
0.0
 10
-1.89840157480315
 20
2.547295275590551
 30
0.0
 10
-1.89840157480315
 20
2.547295275590551
 30
0.0
 10
-1.89840157480315
 20
2.547295275590551
 30
0.0
 10
-1.88692125984252
 20
2.543094488188976
 30
0.0
 10
-1.88692125984252
 20
2.543094488188976
 30
0.0
  0
SPLINE
  5
64
330
1F
100
AcDbEntity
  8
LAYER_1
 62
   252
100
AcDbSpline
210
0.0
220
0.0
230
1.0
 70
    11
 71
     3
 72
    44
 73
    40
 74
     0
 42
0.0000000001
 43
0.0000000001
 40
0.0
 40
0.0
 40
0.0
 40
0.0
 40
0.1
 40
0.1
 40
0.1
 40
0.1
 40
0.2
 40
0.2
 40
0.2
 40
0.2
 40
0.3
 40
0.3
 40
0.3
 40
0.3
 40
0.4
 40
0.4
 40
0.4
 40
0.4
 40
0.5
 40
0.5
 40
0.5
 40
0.5
 40
0.6
 40
0.6
 40
0.6
 40
0.6
 40
0.7
 40
0.7
 40
0.7
 40
0.7
 40
0.7999999999999999
 40
0.7999999999999999
 40
0.7999999999999999
 40
0.7999999999999999
 40
0.8999999999999999
 40
0.8999999999999999
 40
0.8999999999999999
 40
0.8999999999999999
 40
1.0
 40
1.0
 40
1.0
 40
1.0
 10
-1.935574803149606
 20
2.55292125984252
 30
0.0
 10
-1.935574803149606
 20
2.55292125984252
 30
0.0
 10
-1.933334645669292
 20
3.306023622047244
 30
0.0
 10
-1.933334645669292
 20
3.306023622047244
 30
0.0
 10
-1.933334645669292
 20
3.306023622047244
 30
0.0
 10
-1.933334645669292
 20
3.306023622047244
 30
0.0
 10
-1.946106299212599
 20
3.305374015748032
 30
0.0
 10
-1.946106299212599
 20
3.305374015748032
 30
0.0
 10
-1.946106299212599
 20
3.305374015748032
 30
0.0
 10
-1.946106299212599
 20
3.305374015748032
 30
0.0
 10
-1.958515748031496
 20
3.30348031496063
 30
0.0
 10
-1.958515748031496
 20
3.30348031496063
 30
0.0
 10
-1.958515748031496
 20
3.30348031496063
 30
0.0
 10
-1.958515748031496
 20
3.30348031496063
 30
0.0
 10
-1.970492125984252
 20
3.300397637795276
 30
0.0
 10
-1.970492125984252
 20
3.300397637795276
 30
0.0
 10
-1.970492125984252
 20
3.300397637795276
 30
0.0
 10
-1.970492125984252
 20
3.300397637795276
 30
0.0
 10
-1.98198031496063
 20
3.296196850393701
 30
0.0
 10
-1.98198031496063
 20
3.296196850393701
 30
0.0
 10
-1.98198031496063
 20
3.296196850393701
 30
0.0
 10
-1.98198031496063
 20
3.296196850393701
 30
0.0
 10
-1.984220472440945
 20
2.543094488188976
 30
0.0
 10
-1.984220472440945
 20
2.543094488188976
 30
0.0
 10
-1.984220472440945
 20
2.543094488188976
 30
0.0
 10
-1.984220472440945
 20
2.543094488188976
 30
0.0
 10
-1.972732283464567
 20
2.547295275590551
 30
0.0
 10
-1.972732283464567
 20
2.547295275590551
 30
0.0
 10
-1.972732283464567
 20
2.547295275590551
 30
0.0
 10
-1.972732283464567
 20
2.547295275590551
 30
0.0
 10
-1.960755905511811
 20
2.550377952755905
 30
0.0
 10
-1.960755905511811
 20
2.550377952755905
 30
0.0
 10
-1.960755905511811
 20
2.550377952755905
 30
0.0
 10
-1.960755905511811
 20
2.550377952755905
 30
0.0
 10
-1.948346456692913
 20
2.552271653543307
 30
0.0
 10
-1.948346456692913
 20
2.552271653543307
 30
0.0
 10
-1.948346456692913
 20
2.552271653543307
 30
0.0
 10
-1.948346456692913
 20
2.552271653543307
 30
0.0
 10
-1.935574803149606
 20
2.55292125984252
 30
0.0
 10
-1.935574803149606
 20
2.55292125984252
 30
0.0
  0
SPLINE
  5
65
330
1F
100
AcDbEntity
  8
LAYER_1
 62
   252
100
AcDbSpline
210
0.0
220
0.0
230
1.0
 70
    11
 71
     3
 72
    44
 73
    40
 74
     0
 42
0.0000000001
 43
0.0000000001
 40
0.0
 40
0.0
 40
0.0
 40
0.0
 40
0.1
 40
0.1
 40
0.1
 40
0.1
 40
0.2
 40
0.2
 40
0.2
 40
0.2
 40
0.3
 40
0.3
 40
0.3
 40
0.3
 40
0.4
 40
0.4
 40
0.4
 40
0.4
 40
0.5
 40
0.5
 40
0.5
 40
0.5
 40
0.6
 40
0.6
 40
0.6
 40
0.6
 40
0.7
 40
0.7
 40
0.7
 40
0.7
 40
0.7999999999999999
 40
0.7999999999999999
 40
0.7999999999999999
 40
0.7999999999999999
 40
0.8999999999999999
 40
0.8999999999999999
 40
0.8999999999999999
 40
0.8999999999999999
 40
1.0
 40
1.0
 40
1.0
 40
1.0
 10
-1.984220472440945
 20
2.543094488188976
 30
0.0
 10
-1.984220472440945
 20
2.543094488188976
 30
0.0
 10
-1.98198031496063
 20
3.296196850393701
 30
0.0
 10
-1.98198031496063
 20
3.296196850393701
 30
0.0
 10
-1.98198031496063
 20
3.296196850393701
 30
0.0
 10
-1.98198031496063
 20
3.296196850393701
 30
0.0
 10
-1.99290157480315
 20
3.290929133858268
 30
0.0
 10
-1.99290157480315
 20
3.290929133858268
 30
0.0
 10
-1.99290157480315
 20
3.290929133858268
 30
0.0
 10
-1.99290157480315
 20
3.290929133858268
 30
0.0
 10
-2.003212598425197
 20
3.284665354330709
 30
0.0
 10
-2.003212598425197
 20
3.284665354330709
 30
0.0
 10
-2.003212598425197
 20
3.284665354330709
 30
0.0
 10
-2.003212598425197
 20
3.284665354330709
 30
0.0
 10
-2.012834645669292
 20
3.277468503937008
 30
0.0
 10
-2.012834645669292
 20
3.277468503937008
 30
0.0
 10
-2.012834645669292
 20
3.277468503937008
 30
0.0
 10
-2.012834645669292
 20
3.277468503937008
 30
0.0
 10
-2.021716535433071
 20
3.269405511811024
 30
0.0
 10
-2.021716535433071
 20
3.269405511811024
 30
0.0
 10
-2.021716535433071
 20
3.269405511811024
 30
0.0
 10
-2.021716535433071
 20
3.269405511811024
 30
0.0
 10
-2.023956692913386
 20
2.5163031496063
 30
0.0
 10
-2.023956692913386
 20
2.5163031496063
 30
0.0
 10
-2.023956692913386
 20
2.5163031496063
 30
0.0
 10
-2.023956692913386
 20
2.5163031496063
 30
0.0
 10
-2.015074803149606
 20
2.524366141732283
 30
0.0
 10
-2.015074803149606
 20
2.524366141732283
 30
0.0
 10
-2.015074803149606
 20
2.524366141732283
 30
0.0
 10
-2.015074803149606
 20
2.524366141732283
 30
0.0
 10
-2.005452755905512
 20
2.531562992125985
 30
0.0
 10
-2.005452755905512
 20
2.531562992125985
 30
0.0
 10
-2.005452755905512
 20
2.531562992125985
 30
0.0
 10
-2.005452755905512
 20
2.531562992125985
 30
0.0
 10
-1.995141732283465
 20
2.537826771653543
 30
0.0
 10
-1.995141732283465
 20
2.537826771653543
 30
0.0
 10
-1.995141732283465
 20
2.537826771653543
 30
0.0
 10
-1.995141732283465
 20
2.537826771653543
 30
0.0
 10
-1.984220472440945
 20
2.543094488188976
 30
0.0
 10
-1.984220472440945
 20
2.543094488188976
 30
0.0
  0
SPLINE
  5
66
330
1F
100
AcDbEntity
  8
LAYER_1
 62
     8
100
AcDbSpline
210
0.0
220
0.0
230
1.0
 70
    11
 71
     3
 72
    44
 73
    40
 74
     0
 42
0.0000000001
 43
0.0000000001
 40
0.0
 40
0.0
 40
0.0
 40
0.0
 40
0.1
 40
0.1
 40
0.1
 40
0.1
 40
0.2
 40
0.2
 40
0.2
 40
0.2
 40
0.3
 40
0.3
 40
0.3
 40
0.3
 40
0.4
 40
0.4
 40
0.4
 40
0.4
 40
0.5
 40
0.5
 40
0.5
 40
0.5
 40
0.6
 40
0.6
 40
0.6
 40
0.6
 40
0.7
 40
0.7
 40
0.7
 40
0.7
 40
0.7999999999999999
 40
0.7999999999999999
 40
0.7999999999999999
 40
0.7999999999999999
 40
0.8999999999999999
 40
0.8999999999999999
 40
0.8999999999999999
 40
0.8999999999999999
 40
1.0
 40
1.0
 40
1.0
 40
1.0
 10
-2.023956692913386
 20
2.5163031496063
 30
0.0
 10
-2.023956692913386
 20
2.5163031496063
 30
0.0
 10
-2.021716535433071
 20
3.269405511811024
 30
0.0
 10
-2.021716535433071
 20
3.269405511811024
 30
0.0
 10
-2.021716535433071
 20
3.269405511811024
 30
0.0
 10
-2.021716535433071
 20
3.269405511811024
 30
0.0
 10
-2.029779527559055
 20
3.260523622047244
 30
0.0
 10
-2.029779527559055
 20
3.260523622047244
 30
0.0
 10
-2.029779527559055
 20
3.260523622047244
 30
0.0
 10
-2.029779527559055
 20
3.260523622047244
 30
0.0
 10
-2.036976377952756
 20
3.25090157480315
 30
0.0
 10
-2.036976377952756
 20
3.25090157480315
 30
0.0
 10
-2.036976377952756
 20
3.25090157480315
 30
0.0
 10
-2.036976377952756
 20
3.25090157480315
 30
0.0
 10
-2.043240157480315
 20
3.240590551181103
 30
0.0
 10
-2.043240157480315
 20
3.240590551181103
 30
0.0
 10
-2.043240157480315
 20
3.240590551181103
 30
0.0
 10
-2.043240157480315
 20
3.240590551181103
 30
0.0
 10
-2.048507874015748
 20
3.229669291338583
 30
0.0
 10
-2.048507874015748
 20
3.229669291338583
 30
0.0
 10
-2.048507874015748
 20
3.229669291338583
 30
0.0
 10
-2.048507874015748
 20
3.229669291338583
 30
0.0
 10
-2.050748031496063
 20
2.476566929133858
 30
0.0
 10
-2.050748031496063
 20
2.476566929133858
 30
0.0
 10
-2.050748031496063
 20
2.476566929133858
 30
0.0
 10
-2.050748031496063
 20
2.476566929133858
 30
0.0
 10
-2.04548031496063
 20
2.487488188976378
 30
0.0
 10
-2.04548031496063
 20
2.487488188976378
 30
0.0
 10
-2.04548031496063
 20
2.487488188976378
 30
0.0
 10
-2.04548031496063
 20
2.487488188976378
 30
0.0
 10
-2.039216535433071
 20
2.497799212598425
 30
0.0
 10
-2.039216535433071
 20
2.497799212598425
 30
0.0
 10
-2.039216535433071
 20
2.497799212598425
 30
0.0
 10
-2.039216535433071
 20
2.497799212598425
 30
0.0
 10
-2.03201968503937
 20
2.50742125984252
 30
0.0
 10
-2.03201968503937
 20
2.50742125984252
 30
0.0
 10
-2.03201968503937
 20
2.50742125984252
 30
0.0
 10
-2.03201968503937
 20
2.50742125984252
 30
0.0
 10
-2.023956692913386
 20
2.5163031496063
 30
0.0
 10
-2.023956692913386
 20
2.5163031496063
 30
0.0
  0
SPLINE
  5
67
330
1F
100
AcDbEntity
  8
LAYER_1
 62
   149
100
AcDbSpline
210
0.0
220
0.0
230
1.0
 70
    11
 71
     3
 72
    36
 73
    32
 74
     0
 42
0.0000000001
 43
0.0000000001
 40
0.0
 40
0.0
 40
0.0
 40
0.0
 40
0.125
 40
0.125
 40
0.125
 40
0.125
 40
0.25
 40
0.25
 40
0.25
 40
0.25
 40
0.375
 40
0.375
 40
0.375
 40
0.375
 40
0.5
 40
0.5
 40
0.5
 40
0.5
 40
0.625
 40
0.625
 40
0.625
 40
0.625
 40
0.75
 40
0.75
 40
0.75
 40
0.75
 40
0.875
 40
0.875
 40
0.875
 40
0.875
 40
1.0
 40
1.0
 40
1.0
 40
1.0
 10
-2.050748031496063
 20
2.476566929133858
 30
0.0
 10
-2.050748031496063
 20
2.476566929133858
 30
0.0
 10
-2.048507874015748
 20
3.229669291338583
 30
0.0
 10
-2.048507874015748
 20
3.229669291338583
 30
0.0
 10
-2.048507874015748
 20
3.229669291338583
 30
0.0
 10
-2.048507874015748
 20
3.229669291338583
 30
0.0
 10
-2.052708661417323
 20
3.218181102362205
 30
0.0
 10
-2.052708661417323
 20
3.218181102362205
 30
0.0
 10
-2.052708661417323
 20
3.218181102362205
 30
0.0
 10
-2.052708661417323
 20
3.218181102362205
 30
0.0
 10
-2.055791338582677
 20
3.206204724409449
 30
0.0
 10
-2.055791338582677
 20
3.206204724409449
 30
0.0
 10
-2.055791338582677
 20
3.206204724409449
 30
0.0
 10
-2.055791338582677
 20
3.206204724409449
 30
0.0
 10
-2.057685039370079
 20
3.193795275590551
 30
0.0
 10
-2.057685039370079
 20
3.193795275590551
 30
0.0
 10
-2.057685039370079
 20
3.193795275590551
 30
0.0
 10
-2.057685039370079
 20
3.193795275590551
 30
0.0
 10
-2.059925196850394
 20
2.440692913385827
 30
0.0
 10
-2.059925196850394
 20
2.440692913385827
 30
0.0
 10
-2.059925196850394
 20
2.440692913385827
 30
0.0
 10
-2.059925196850394
 20
2.440692913385827
 30
0.0
 10
-2.058031496062992
 20
2.453102362204724
 30
0.0
 10
-2.058031496062992
 20
2.453102362204724
 30
0.0
 10
-2.058031496062992
 20
2.453102362204724
 30
0.0
 10
-2.058031496062992
 20
2.453102362204724
 30
0.0
 10
-2.054948818897638
 20
2.46507874015748
 30
0.0
 10
-2.054948818897638
 20
2.46507874015748
 30
0.0
 10
-2.054948818897638
 20
2.46507874015748
 30
0.0
 10
-2.054948818897638
 20
2.46507874015748
 30
0.0
 10
-2.050748031496063
 20
2.476566929133858
 30
0.0
 10
-2.050748031496063
 20
2.476566929133858
 30
0.0
  0
SPLINE
  5
68
330
1F
100
AcDbEntity
  8
LAYER_1
 62
   250
100
AcDbSpline
210
0.0
220
0.0
230
1.0
 70
    11
 71
     3
 72
   260
 73
   256
 74
     0
 42
0.0000000001
 43
0.0000000001
 40
0.0
 40
0.0
 40
0.0
 40
0.0
 40
0.015625
 40
0.015625
 40
0.015625
 40
0.015625
 40
0.03125
 40
0.03125
 40
0.03125
 40
0.03125
 40
0.046875
 40
0.046875
 40
0.046875
 40
0.046875
 40
0.0625
 40
0.0625
 40
0.0625
 40
0.0625
 40
0.078125
 40
0.078125
 40
0.078125
 40
0.078125
 40
0.09375
 40
0.09375
 40
0.09375
 40
0.09375
 40
0.109375
 40
0.109375
 40
0.109375
 40
0.109375
 40
0.125
 40
0.125
 40
0.125
 40
0.125
 40
0.140625
 40
0.140625
 40
0.140625
 40
0.140625
 40
0.15625
 40
0.15625
 40
0.15625
 40
0.15625
 40
0.171875
 40
0.171875
 40
0.171875
 40
0.171875
 40
0.1875
 40
0.1875
 40
0.1875
 40
0.1875
 40
0.203125
 40
0.203125
 40
0.203125
 40
0.203125
 40
0.21875
 40
0.21875
 40
0.21875
 40
0.21875
 40
0.234375
 40
0.234375
 40
0.234375
 40
0.234375
 40
0.25
 40
0.25
 40
0.25
 40
0.25
 40
0.265625
 40
0.265625
 40
0.265625
 40
0.265625
 40
0.28125
 40
0.28125
 40
0.28125
 40
0.28125
 40
0.296875
 40
0.296875
 40
0.296875
 40
0.296875
 40
0.3125
 40
0.3125
 40
0.3125
 40
0.3125
 40
0.328125
 40
0.328125
 40
0.328125
 40
0.328125
 40
0.34375
 40
0.34375
 40
0.34375
 40
0.34375
 40
0.359375
 40
0.359375
 40
0.359375
 40
0.359375
 40
0.375
 40
0.375
 40
0.375
 40
0.375
 40
0.390625
 40
0.390625
 40
0.390625
 40
0.390625
 40
0.40625
 40
0.40625
 40
0.40625
 40
0.40625
 40
0.421875
 40
0.421875
 40
0.421875
 40
0.421875
 40
0.4375
 40
0.4375
 40
0.4375
 40
0.4375
 40
0.453125
 40
0.453125
 40
0.453125
 40
0.453125
 40
0.46875
 40
0.46875
 40
0.46875
 40
0.46875
 40
0.484375
 40
0.484375
 40
0.484375
 40
0.484375
 40
0.5
 40
0.5
 40
0.5
 40
0.5
 40
0.515625
 40
0.515625
 40
0.515625
 40
0.515625
 40
0.53125
 40
0.53125
 40
0.53125
 40
0.53125
 40
0.546875
 40
0.546875
 40
0.546875
 40
0.546875
 40
0.5625
 40
0.5625
 40
0.5625
 40
0.5625
 40
0.578125
 40
0.578125
 40
0.578125
 40
0.578125
 40
0.59375
 40
0.59375
 40
0.59375
 40
0.59375
 40
0.609375
 40
0.609375
 40
0.609375
 40
0.609375
 40
0.625
 40
0.625
 40
0.625
 40
0.625
 40
0.640625
 40
0.640625
 40
0.640625
 40
0.640625
 40
0.65625
 40
0.65625
 40
0.65625
 40
0.65625
 40
0.671875
 40
0.671875
 40
0.671875
 40
0.671875
 40
0.6875
 40
0.6875
 40
0.6875
 40
0.6875
 40
0.703125
 40
0.703125
 40
0.703125
 40
0.703125
 40
0.71875
 40
0.71875
 40
0.71875
 40
0.71875
 40
0.734375
 40
0.734375
 40
0.734375
 40
0.734375
 40
0.75
 40
0.75
 40
0.75
 40
0.75
 40
0.765625
 40
0.765625
 40
0.765625
 40
0.765625
 40
0.78125
 40
0.78125
 40
0.78125
 40
0.78125
 40
0.796875
 40
0.796875
 40
0.796875
 40
0.796875
 40
0.8125
 40
0.8125
 40
0.8125
 40
0.8125
 40
0.828125
 40
0.828125
 40
0.828125
 40
0.828125
 40
0.84375
 40
0.84375
 40
0.84375
 40
0.84375
 40
0.859375
 40
0.859375
 40
0.859375
 40
0.859375
 40
0.875
 40
0.875
 40
0.875
 40
0.875
 40
0.890625
 40
0.890625
 40
0.890625
 40
0.890625
 40
0.90625
 40
0.90625
 40
0.90625
 40
0.90625
 40
0.921875
 40
0.921875
 40
0.921875
 40
0.921875
 40
0.9375
 40
0.9375
 40
0.9375
 40
0.9375
 40
0.953125
 40
0.953125
 40
0.953125
 40
0.953125
 40
0.96875
 40
0.96875
 40
0.96875
 40
0.96875
 40
0.984375
 40
0.984375
 40
0.984375
 40
0.984375
 40
1.0
 40
1.0
 40
1.0
 40
1.0
 10
-1.810574803149606
 20
2.42792125984252
 30
0.0
 10
-1.810574803149606
 20
2.42792125984252
 30
0.0
 10
-1.808334645669292
 20
3.181023622047244
 30
0.0
 10
-1.808334645669292
 20
3.181023622047244
 30
0.0
 10
-1.808334645669292
 20
3.181023622047244
 30
0.0
 10
-1.808334645669292
 20
3.181023622047244
 30
0.0
 10
-1.808976377952756
 20
3.193795275590551
 30
0.0
 10
-1.808976377952756
 20
3.193795275590551
 30
0.0
 10
-1.808976377952756
 20
3.193795275590551
 30
0.0
 10
-1.808976377952756
 20
3.193795275590551
 30
0.0
 10
-1.810870078740158
 20
3.206204724409449
 30
0.0
 10
-1.810870078740158
 20
3.206204724409449
 30
0.0
 10
-1.810870078740158
 20
3.206204724409449
 30
0.0
 10
-1.810870078740158
 20
3.206204724409449
 30
0.0
 10
-1.813948818897638
 20
3.218181102362205
 30
0.0
 10
-1.813948818897638
 20
3.218181102362205
 30
0.0
 10
-1.813948818897638
 20
3.218181102362205
 30
0.0
 10
-1.813948818897638
 20
3.218181102362205
 30
0.0
 10
-1.818157480314961
 20
3.229669291338583
 30
0.0
 10
-1.818157480314961
 20
3.229669291338583
 30
0.0
 10
-1.818157480314961
 20
3.229669291338583
 30
0.0
 10
-1.818157480314961
 20
3.229669291338583
 30
0.0
 10
-1.823417322834646
 20
3.240590551181103
 30
0.0
 10
-1.823417322834646
 20
3.240590551181103
 30
0.0
 10
-1.823417322834646
 20
3.240590551181103
 30
0.0
 10
-1.823417322834646
 20
3.240590551181103
 30
0.0
 10
-1.829681102362205
 20
3.25090157480315
 30
0.0
 10
-1.829681102362205
 20
3.25090157480315
 30
0.0
 10
-1.829681102362205
 20
3.25090157480315
 30
0.0
 10
-1.829681102362205
 20
3.25090157480315
 30
0.0
 10
-1.836874015748032
 20
3.260523622047244
 30
0.0
 10
-1.836874015748032
 20
3.260523622047244
 30
0.0
 10
-1.836874015748032
 20
3.260523622047244
 30
0.0
 10
-1.836874015748032
 20
3.260523622047244
 30
0.0
 10
-1.844948818897638
 20
3.269405511811024
 30
0.0
 10
-1.844948818897638
 20
3.269405511811024
 30
0.0
 10
-1.844948818897638
 20
3.269405511811024
 30
0.0
 10
-1.844948818897638
 20
3.269405511811024
 30
0.0
 10
-1.853818897637795
 20
3.277468503937008
 30
0.0
 10
-1.853818897637795
 20
3.277468503937008
 30
0.0
 10
-1.853818897637795
 20
3.277468503937008
 30
0.0
 10
-1.853818897637795
 20
3.277468503937008
 30
0.0
 10
-1.863444881889764
 20
3.284665354330709
 30
0.0
 10
-1.863444881889764
 20
3.284665354330709
 30
0.0
 10
-1.863444881889764
 20
3.284665354330709
 30
0.0
 10
-1.863444881889764
 20
3.284665354330709
 30
0.0
 10
-1.873751968503937
 20
3.290929133858268
 30
0.0
 10
-1.873751968503937
 20
3.290929133858268
 30
0.0
 10
-1.873751968503937
 20
3.290929133858268
 30
0.0
 10
-1.873751968503937
 20
3.290929133858268
 30
0.0
 10
-1.884681102362205
 20
3.296196850393701
 30
0.0
 10
-1.884681102362205
 20
3.296196850393701
 30
0.0
 10
-1.884681102362205
 20
3.296196850393701
 30
0.0
 10
-1.884681102362205
 20
3.296196850393701
 30
0.0
 10
-1.896161417322835
 20
3.300397637795276
 30
0.0
 10
-1.896161417322835
 20
3.300397637795276
 30
0.0
 10
-1.896161417322835
 20
3.300397637795276
 30
0.0
 10
-1.896161417322835
 20
3.300397637795276
 30
0.0
 10
-1.908141732283465
 20
3.30348031496063
 30
0.0
 10
-1.908141732283465
 20
3.30348031496063
 30
0.0
 10
-1.908141732283465
 20
3.30348031496063
 30
0.0
 10
-1.908141732283465
 20
3.30348031496063
 30
0.0
 10
-1.920551181102362
 20
3.305374015748032
 30
0.0
 10
-1.920551181102362
 20
3.305374015748032
 30
0.0
 10
-1.920551181102362
 20
3.305374015748032
 30
0.0
 10
-1.920551181102362
 20
3.305374015748032
 30
0.0
 10
-1.933334645669292
 20
3.306023622047244
 30
0.0
 10
-1.933334645669292
 20
3.306023622047244
 30
0.0
 10
-1.933334645669292
 20
3.306023622047244
 30
0.0
 10
-1.933334645669292
 20
3.306023622047244
 30
0.0
 10
-1.946106299212599
 20
3.305374015748032
 30
0.0
 10
-1.946106299212599
 20
3.305374015748032
 30
0.0
 10
-1.946106299212599
 20
3.305374015748032
 30
0.0
 10
-1.946106299212599
 20
3.305374015748032
 30
0.0
 10
-1.958515748031496
 20
3.30348031496063
 30
0.0
 10
-1.958515748031496
 20
3.30348031496063
 30
0.0
 10
-1.958515748031496
 20
3.30348031496063
 30
0.0
 10
-1.958515748031496
 20
3.30348031496063
 30
0.0
 10
-1.970492125984252
 20
3.300397637795276
 30
0.0
 10
-1.970492125984252
 20
3.300397637795276
 30
0.0
 10
-1.970492125984252
 20
3.300397637795276
 30
0.0
 10
-1.970492125984252
 20
3.300397637795276
 30
0.0
 10
-1.98198031496063
 20
3.296196850393701
 30
0.0
 10
-1.98198031496063
 20
3.296196850393701
 30
0.0
 10
-1.98198031496063
 20
3.296196850393701
 30
0.0
 10
-1.98198031496063
 20
3.296196850393701
 30
0.0
 10
-1.99290157480315
 20
3.290929133858268
 30
0.0
 10
-1.99290157480315
 20
3.290929133858268
 30
0.0
 10
-1.99290157480315
 20
3.290929133858268
 30
0.0
 10
-1.99290157480315
 20
3.290929133858268
 30
0.0
 10
-2.003212598425197
 20
3.284665354330709
 30
0.0
 10
-2.003212598425197
 20
3.284665354330709
 30
0.0
 10
-2.003212598425197
 20
3.284665354330709
 30
0.0
 10
-2.003212598425197
 20
3.284665354330709
 30
0.0
 10
-2.012834645669292
 20
3.277468503937008
 30
0.0
 10
-2.012834645669292
 20
3.277468503937008
 30
0.0
 10
-2.012834645669292
 20
3.277468503937008
 30
0.0
 10
-2.012834645669292
 20
3.277468503937008
 30
0.0
 10
-2.021716535433071
 20
3.269405511811024
 30
0.0
 10
-2.021716535433071
 20
3.269405511811024
 30
0.0
 10
-2.021716535433071
 20
3.269405511811024
 30
0.0
 10
-2.021716535433071
 20
3.269405511811024
 30
0.0
 10
-2.029779527559055
 20
3.260523622047244
 30
0.0
 10
-2.029779527559055
 20
3.260523622047244
 30
0.0
 10
-2.029779527559055
 20
3.260523622047244
 30
0.0
 10
-2.029779527559055
 20
3.260523622047244
 30
0.0
 10
-2.036976377952756
 20
3.25090157480315
 30
0.0
 10
-2.036976377952756
 20
3.25090157480315
 30
0.0
 10
-2.036976377952756
 20
3.25090157480315
 30
0.0
 10
-2.036976377952756
 20
3.25090157480315
 30
0.0
 10
-2.043240157480315
 20
3.240590551181103
 30
0.0
 10
-2.043240157480315
 20
3.240590551181103
 30
0.0
 10
-2.043240157480315
 20
3.240590551181103
 30
0.0
 10
-2.043240157480315
 20
3.240590551181103
 30
0.0
 10
-2.048507874015748
 20
3.229669291338583
 30
0.0
 10
-2.048507874015748
 20
3.229669291338583
 30
0.0
 10
-2.048507874015748
 20
3.229669291338583
 30
0.0
 10
-2.048507874015748
 20
3.229669291338583
 30
0.0
 10
-2.052708661417323
 20
3.218181102362205
 30
0.0
 10
-2.052708661417323
 20
3.218181102362205
 30
0.0
 10
-2.052708661417323
 20
3.218181102362205
 30
0.0
 10
-2.052708661417323
 20
3.218181102362205
 30
0.0
 10
-2.055791338582677
 20
3.206204724409449
 30
0.0
 10
-2.055791338582677
 20
3.206204724409449
 30
0.0
 10
-2.055791338582677
 20
3.206204724409449
 30
0.0
 10
-2.055791338582677
 20
3.206204724409449
 30
0.0
 10
-2.057685039370079
 20
3.193795275590551
 30
0.0
 10
-2.057685039370079
 20
3.193795275590551
 30
0.0
 10
-2.057685039370079
 20
3.193795275590551
 30
0.0
 10
-2.057685039370079
 20
3.193795275590551
 30
0.0
 10
-2.059925196850394
 20
2.440692913385827
 30
0.0
 10
-2.059925196850394
 20
2.440692913385827
 30
0.0
 10
-2.059925196850394
 20
2.440692913385827
 30
0.0
 10
-2.059925196850394
 20
2.440692913385827
 30
0.0
 10
-2.058031496062992
 20
2.453102362204724
 30
0.0
 10
-2.058031496062992
 20
2.453102362204724
 30
0.0
 10
-2.058031496062992
 20
2.453102362204724
 30
0.0
 10
-2.058031496062992
 20
2.453102362204724
 30
0.0
 10
-2.054948818897638
 20
2.46507874015748
 30
0.0
 10
-2.054948818897638
 20
2.46507874015748
 30
0.0
 10
-2.054948818897638
 20
2.46507874015748
 30
0.0
 10
-2.054948818897638
 20
2.46507874015748
 30
0.0
 10
-2.050748031496063
 20
2.476566929133858
 30
0.0
 10
-2.050748031496063
 20
2.476566929133858
 30
0.0
 10
-2.050748031496063
 20
2.476566929133858
 30
0.0
 10
-2.050748031496063
 20
2.476566929133858
 30
0.0
 10
-2.04548031496063
 20
2.487488188976378
 30
0.0
 10
-2.04548031496063
 20
2.487488188976378
 30
0.0
 10
-2.04548031496063
 20
2.487488188976378
 30
0.0
 10
-2.04548031496063
 20
2.487488188976378
 30
0.0
 10
-2.039216535433071
 20
2.497799212598425
 30
0.0
 10
-2.039216535433071
 20
2.497799212598425
 30
0.0
 10
-2.039216535433071
 20
2.497799212598425
 30
0.0
 10
-2.039216535433071
 20
2.497799212598425
 30
0.0
 10
-2.03201968503937
 20
2.50742125984252
 30
0.0
 10
-2.03201968503937
 20
2.50742125984252
 30
0.0
 10
-2.03201968503937
 20
2.50742125984252
 30
0.0
 10
-2.03201968503937
 20
2.50742125984252
 30
0.0
 10
-2.023956692913386
 20
2.5163031496063
 30
0.0
 10
-2.023956692913386
 20
2.5163031496063
 30
0.0
 10
-2.023956692913386
 20
2.5163031496063
 30
0.0
 10
-2.023956692913386
 20
2.5163031496063
 30
0.0
 10
-2.015074803149606
 20
2.524366141732283
 30
0.0
 10
-2.015074803149606
 20
2.524366141732283
 30
0.0
 10
-2.015074803149606
 20
2.524366141732283
 30
0.0
 10
-2.015074803149606
 20
2.524366141732283
 30
0.0
 10
-2.005452755905512
 20
2.531562992125985
 30
0.0
 10
-2.005452755905512
 20
2.531562992125985
 30
0.0
 10
-2.005452755905512
 20
2.531562992125985
 30
0.0
 10
-2.005452755905512
 20
2.531562992125985
 30
0.0
 10
-1.995141732283465
 20
2.537826771653543
 30
0.0
 10
-1.995141732283465
 20
2.537826771653543
 30
0.0
 10
-1.995141732283465
 20
2.537826771653543
 30
0.0
 10
-1.995141732283465
 20
2.537826771653543
 30
0.0
 10
-1.984220472440945
 20
2.543094488188976
 30
0.0
 10
-1.984220472440945
 20
2.543094488188976
 30
0.0
 10
-1.984220472440945
 20
2.543094488188976
 30
0.0
 10
-1.984220472440945
 20
2.543094488188976
 30
0.0
 10
-1.972732283464567
 20
2.547295275590551
 30
0.0
 10
-1.972732283464567
 20
2.547295275590551
 30
0.0
 10
-1.972732283464567
 20
2.547295275590551
 30
0.0
 10
-1.972732283464567
 20
2.547295275590551
 30
0.0
 10
-1.960755905511811
 20
2.550377952755905
 30
0.0
 10
-1.960755905511811
 20
2.550377952755905
 30
0.0
 10
-1.960755905511811
 20
2.550377952755905
 30
0.0
 10
-1.960755905511811
 20
2.550377952755905
 30
0.0
 10
-1.948346456692913
 20
2.552271653543307
 30
0.0
 10
-1.948346456692913
 20
2.552271653543307
 30
0.0
 10
-1.948346456692913
 20
2.552271653543307
 30
0.0
 10
-1.948346456692913
 20
2.552271653543307
 30
0.0
 10
-1.935574803149606
 20
2.55292125984252
 30
0.0
 10
-1.935574803149606
 20
2.55292125984252
 30
0.0
 10
-1.935574803149606
 20
2.55292125984252
 30
0.0
 10
-1.935574803149606
 20
2.55292125984252
 30
0.0
 10
-1.922791338582677
 20
2.552271653543307
 30
0.0
 10
-1.922791338582677
 20
2.552271653543307
 30
0.0
 10
-1.922791338582677
 20
2.552271653543307
 30
0.0
 10
-1.922791338582677
 20
2.552271653543307
 30
0.0
 10
-1.91038188976378
 20
2.550377952755905
 30
0.0
 10
-1.91038188976378
 20
2.550377952755905
 30
0.0
 10
-1.91038188976378
 20
2.550377952755905
 30
0.0
 10
-1.91038188976378
 20
2.550377952755905
 30
0.0
 10
-1.89840157480315
 20
2.547295275590551
 30
0.0
 10
-1.89840157480315
 20
2.547295275590551
 30
0.0
 10
-1.89840157480315
 20
2.547295275590551
 30
0.0
 10
-1.89840157480315
 20
2.547295275590551
 30
0.0
 10
-1.88692125984252
 20
2.543094488188976
 30
0.0
 10
-1.88692125984252
 20
2.543094488188976
 30
0.0
 10
-1.88692125984252
 20
2.543094488188976
 30
0.0
 10
-1.88692125984252
 20
2.543094488188976
 30
0.0
 10
-1.875992125984252
 20
2.537826771653543
 30
0.0
 10
-1.875992125984252
 20
2.537826771653543
 30
0.0
 10
-1.875992125984252
 20
2.537826771653543
 30
0.0
 10
-1.875992125984252
 20
2.537826771653543
 30
0.0
 10
-1.865685039370079
 20
2.531562992125985
 30
0.0
 10
-1.865685039370079
 20
2.531562992125985
 30
0.0
 10
-1.865685039370079
 20
2.531562992125985
 30
0.0
 10
-1.865685039370079
 20
2.531562992125985
 30
0.0
 10
-1.85605905511811
 20
2.524366141732283
 30
0.0
 10
-1.85605905511811
 20
2.524366141732283
 30
0.0
 10
-1.85605905511811
 20
2.524366141732283
 30
0.0
 10
-1.85605905511811
 20
2.524366141732283
 30
0.0
 10
-1.847188976377953
 20
2.5163031496063
 30
0.0
 10
-1.847188976377953
 20
2.5163031496063
 30
0.0
 10
-1.847188976377953
 20
2.5163031496063
 30
0.0
 10
-1.847188976377953
 20
2.5163031496063
 30
0.0
 10
-1.839114173228347
 20
2.50742125984252
 30
0.0
 10
-1.839114173228347
 20
2.50742125984252
 30
0.0
 10
-1.839114173228347
 20
2.50742125984252
 30
0.0
 10
-1.839114173228347
 20
2.50742125984252
 30
0.0
 10
-1.83192125984252
 20
2.497799212598425
 30
0.0
 10
-1.83192125984252
 20
2.497799212598425
 30
0.0
 10
-1.83192125984252
 20
2.497799212598425
 30
0.0
 10
-1.83192125984252
 20
2.497799212598425
 30
0.0
 10
-1.825657480314961
 20
2.487488188976378
 30
0.0
 10
-1.825657480314961
 20
2.487488188976378
 30
0.0
 10
-1.825657480314961
 20
2.487488188976378
 30
0.0
 10
-1.825657480314961
 20
2.487488188976378
 30
0.0
 10
-1.820397637795276
 20
2.476566929133858
 30
0.0
 10
-1.820397637795276
 20
2.476566929133858
 30
0.0
 10
-1.820397637795276
 20
2.476566929133858
 30
0.0
 10
-1.820397637795276
 20
2.476566929133858
 30
0.0
 10
-1.816188976377953
 20
2.46507874015748
 30
0.0
 10
-1.816188976377953
 20
2.46507874015748
 30
0.0
 10
-1.816188976377953
 20
2.46507874015748
 30
0.0
 10
-1.816188976377953
 20
2.46507874015748
 30
0.0
 10
-1.813110236220473
 20
2.453102362204724
 30
0.0
 10
-1.813110236220473
 20
2.453102362204724
 30
0.0
 10
-1.813110236220473
 20
2.453102362204724
 30
0.0
 10
-1.813110236220473
 20
2.453102362204724
 30
0.0
 10
-1.811216535433071
 20
2.440692913385827
 30
0.0
 10
-1.811216535433071
 20
2.440692913385827
 30
0.0
 10
-1.811216535433071
 20
2.440692913385827
 30
0.0
 10
-1.811216535433071
 20
2.440692913385827
 30
0.0
 10
-1.810574803149606
 20
2.42792125984252
 30
0.0
 10
-1.810574803149606
 20
2.42792125984252
 30
0.0
  0
SPLINE
  5
69
330
1F
100
AcDbEntity
  8
LAYER_1
 62
     7
100
AcDbSpline
210
0.0
220
0.0
230
1.0
 70
    11
 71
     3
 72
    36
 73
    32
 74
     0
 42
0.0000000001
 43
0.0000000001
 40
0.0
 40
0.0
 40
0.0
 40
0.0
 40
0.125
 40
0.125
 40
0.125
 40
0.125
 40
0.25
 40
0.25
 40
0.25
 40
0.25
 40
0.375
 40
0.375
 40
0.375
 40
0.375
 40
0.5
 40
0.5
 40
0.5
 40
0.5
 40
0.625
 40
0.625
 40
0.625
 40
0.625
 40
0.75
 40
0.75
 40
0.75
 40
0.75
 40
0.875
 40
0.875
 40
0.875
 40
0.875
 40
1.0
 40
1.0
 40
1.0
 40
1.0
 10
1.93807874015748
 20
2.42792125984252
 30
0.0
 10
1.93807874015748
 20
2.496944881889764
 30
0.0
 10
1.882102362204724
 20
2.55292125984252
 30
0.0
 10
1.81307874015748
 20
2.55292125984252
 30
0.0
 10
1.81307874015748
 20
2.55292125984252
 30
0.0
 10
1.744055118110236
 20
2.55292125984252
 30
0.0
 10
1.68807874015748
 20
2.496944881889764
 30
0.0
 10
1.68807874015748
 20
2.42792125984252
 30
0.0
 10
1.68807874015748
 20
2.42792125984252
 30
0.0
 10
1.68807874015748
 20
2.42792125984252
 30
0.0
 10
-1.810574803149606
 20
2.42792125984252
 30
0.0
 10
-1.810574803149606
 20
2.42792125984252
 30
0.0
 10
-1.810574803149606
 20
2.42792125984252
 30
0.0
 10
-1.810574803149606
 20
2.496944881889764
 30
0.0
 10
-1.866551181102362
 20
2.55292125984252
 30
0.0
 10
-1.935574803149606
 20
2.55292125984252
 30
0.0
 10
-1.935574803149606
 20
2.55292125984252
 30
0.0
 10
-2.00459842519685
 20
2.55292125984252
 30
0.0
 10
-2.060574803149606
 20
2.496944881889764
 30
0.0
 10
-2.060574803149606
 20
2.42792125984252
 30
0.0
 10
-2.060574803149606
 20
2.42792125984252
 30
0.0
 10
-2.060574803149606
 20
2.42792125984252
 30
0.0
 10
-2.060574803149606
 20
1.552633858267717
 30
0.0
 10
-2.060574803149606
 20
1.552633858267717
 30
0.0
 10
-2.060574803149606
 20
1.552633858267717
 30
0.0
 10
-2.060574803149606
 20
1.552633858267717
 30
0.0
 10
1.939425196850394
 20
1.552633858267717
 30
0.0
 10
1.939425196850394
 20
1.552633858267717
 30
0.0
 10
1.939425196850394
 20
1.552633858267717
 30
0.0
 10
1.939425196850394
 20
1.552633858267717
 30
0.0
 10
1.93807874015748
 20
2.42792125984252
 30
0.0
 10
1.93807874015748
 20
2.42792125984252
 30
0.0
  0
SPLINE
  5
6A
330
1F
100
AcDbEntity
  8
LAYER_1
 62
   250
100
AcDbSpline
210
0.0
220
0.0
230
1.0
 70
    11
 71
     3
 72
   104
 73
   100
 74
     0
 42
0.0000000001
 43
0.0000000001
 40
0.0
 40
0.0
 40
0.0
 40
0.0
 40
0.04
 40
0.04
 40
0.04
 40
0.04
 40
0.08
 40
0.08
 40
0.08
 40
0.08
 40
0.12
 40
0.12
 40
0.12
 40
0.12
 40
0.16
 40
0.16
 40
0.16
 40
0.16
 40
0.2
 40
0.2
 40
0.2
 40
0.2
 40
0.24
 40
0.24
 40
0.24
 40
0.24
 40
0.28
 40
0.28
 40
0.28
 40
0.28
 40
0.32
 40
0.32
 40
0.32
 40
0.32
 40
0.36
 40
0.36
 40
0.36
 40
0.36
 40
0.4
 40
0.4
 40
0.4
 40
0.4
 40
0.44
 40
0.44
 40
0.44
 40
0.44
 40
0.4799999999999999
 40
0.4799999999999999
 40
0.4799999999999999
 40
0.4799999999999999
 40
0.5199999999999999
 40
0.5199999999999999
 40
0.5199999999999999
 40
0.5199999999999999
 40
0.5599999999999999
 40
0.5599999999999999
 40
0.5599999999999999
 40
0.5599999999999999
 40
0.6
 40
0.6
 40
0.6
 40
0.6
 40
0.64
 40
0.64
 40
0.64
 40
0.64
 40
0.6800000000000001
 40
0.6800000000000001
 40
0.6800000000000001
 40
0.6800000000000001
 40
0.7200000000000001
 40
0.7200000000000001
 40
0.7200000000000001
 40
0.7200000000000001
 40
0.7600000000000001
 40
0.7600000000000001
 40
0.7600000000000001
 40
0.7600000000000001
 40
0.8000000000000002
 40
0.8000000000000002
 40
0.8000000000000002
 40
0.8000000000000002
 40
0.8400000000000002
 40
0.8400000000000002
 40
0.8400000000000002
 40
0.8400000000000002
 40
0.8800000000000002
 40
0.8800000000000002
 40
0.8800000000000002
 40
0.8800000000000002
 40
0.9200000000000003
 40
0.9200000000000003
 40
0.9200000000000003
 40
0.9200000000000003
 40
0.9600000000000003
 40
0.9600000000000003
 40
0.9600000000000003
 40
0.9600000000000003
 40
1.0
 40
1.0
 40
1.0
 40
1.0
 10
-0.4267598425196851
 20
1.381700787401575
 30
0.0
 10
-0.4267598425196851
 20
1.381700787401575
 30
0.0
 10
-0.3727874015748032
 20
1.381700787401575
 30
0.0
 10
-0.3727874015748032
 20
1.381700787401575
 30
0.0
 10
-0.3727874015748032
 20
1.381700787401575
 30
0.0
 10
-0.3596181102362205
 20
1.381700787401575
 30
0.0
 10
-0.3505905511811024
 20
1.381090551181103
 30
0.0
 10
-0.3457047244094488
 20
1.379893700787402
 30
0.0
 10
-0.3457047244094488
 20
1.379893700787402
 30
0.0
 10
-0.3384803149606299
 20
1.378173228346457
 30
0.0
 10
-0.3327874015748032
 20
1.375035433070866
 30
0.0
 10
-0.3285629921259843
 20
1.370476377952756
 30
0.0
 10
-0.3285629921259843
 20
1.370476377952756
 30
0.0
 10
-0.3243700787401575
 20
1.36592125984252
 30
0.0
 10
-0.322259842519685
 20
1.36042125984252
 30
0.0
 10
-0.322259842519685
 20
1.354035433070866
 30
0.0
 10
-0.322259842519685
 20
1.354035433070866
 30
0.0
 10
-0.322259842519685
 20
1.34942125984252
 30
0.0
 10
-0.3233700787401575
 20
1.345283464566929
 30
0.0
 10
-0.3255905511811024
 20
1.341618110236221
 30
0.0
 10
-0.3255905511811024
 20
1.341618110236221
 30
0.0
 10
-0.3278149606299213
 20
1.337948818897638
 30
0.0
 10
-0.3310629921259843
 20
1.334811023622047
 30
0.0
 10
-0.3352874015748032
 20
1.332228346456693
 30
0.0
 10
-0.3352874015748032
 20
1.332228346456693
 30
0.0
 10
-0.3380078740157481
 20
1.330535433070866
 30
0.0
 10
-0.3416771653543307
 20
1.329090551181102
 30
0.0
 10
-0.3463425196850394
 20
1.327893700787402
 30
0.0
 10
-0.3463425196850394
 20
1.327893700787402
 30
0.0
 10
-0.3404251968503937
 20
1.326811023622047
 30
0.0
 10
-0.3359251968503937
 20
1.325507874015748
 30
0.0
 10
-0.3328425196850394
 20
1.324007874015748
 30
0.0
 10
-0.3328425196850394
 20
1.324007874015748
 30
0.0
 10
-0.3281771653543307
 20
1.321728346456693
 30
0.0
 10
-0.32448031496063
 20
1.31848031496063
 30
0.0
 10
-0.3217874015748032
 20
1.314228346456693
 30
0.0
 10
-0.3217874015748032
 20
1.314228346456693
 30
0.0
 10
-0.3190629921259843
 20
1.310007874015748
 30
0.0
 10
-0.3177047244094489
 20
1.305228346456693
 30
0.0
 10
-0.3177047244094489
 20
1.29992125984252
 30
0.0
 10
-0.3177047244094489
 20
1.29992125984252
 30
0.0
 10
-0.3177047244094489
 20
1.294755905511811
 30
0.0
 10
-0.3190354330708662
 20
1.28998031496063
 30
0.0
 10
-0.3217047244094488
 20
1.285590551181102
 30
0.0
 10
-0.3217047244094488
 20
1.285590551181102
 30
0.0
 10
-0.3243425196850394
 20
1.281200787401575
 30
0.0
 10
-0.3281181102362205
 20
1.277590551181102
 30
0.0
 10
-0.3329527559055118
 20
1.274755905511811
 30
0.0
 10
-0.3329527559055118
 20
1.274755905511811
 30
0.0
 10
-0.3378149606299213
 20
1.271952755905512
 30
0.0
 10
-0.3434803149606299
 20
1.270145669291339
 30
0.0
 10
-0.3499251968503937
 20
1.269338582677166
 30
0.0
 10
-0.3499251968503937
 20
1.269338582677166
 30
0.0
 10
-0.3563976377952756
 20
1.268562992125984
 30
0.0
 10
-0.3630354330708662
 20
1.268173228346457
 30
0.0
 10
-0.3698700787401575
 20
1.268173228346457
 30
0.0
 10
-0.3698700787401575
 20
1.268173228346457
 30
0.0
 10
-0.3698700787401575
 20
1.268173228346457
 30
0.0
 10
-0.4267598425196851
 20
1.268173228346457
 30
0.0
 10
-0.4267598425196851
 20
1.268173228346457
 30
0.0
 10
-0.4267598425196851
 20
1.268173228346457
 30
0.0
 10
-0.4267598425196851
 20
1.268173228346457
 30
0.0
 10
-0.4267598425196851
 20
1.275007874015748
 30
0.0
 10
-0.4267598425196851
 20
1.275007874015748
 30
0.0
 10
-0.4267598425196851
 20
1.275007874015748
 30
0.0
 10
-0.4267598425196851
 20
1.275007874015748
 30
0.0
 10
-0.4229251968503937
 20
1.275007874015748
 30
0.0
 10
-0.4229251968503937
 20
1.275007874015748
 30
0.0
 10
-0.4229251968503937
 20
1.275007874015748
 30
0.0
 10
-0.4192283464566929
 20
1.275007874015748
 30
0.0
 10
-0.4167283464566929
 20
1.275590551181102
 30
0.0
 10
-0.4153700787401575
 20
1.276728346456693
 30
0.0
 10
-0.4153700787401575
 20
1.276728346456693
 30
0.0
 10
-0.4133976377952756
 20
1.278283464566929
 30
0.0
 10
-0.4124251968503937
 20
1.280893700787402
 30
0.0
 10
-0.4124251968503937
 20
1.284535433070866
 30
0.0
 10
-0.4124251968503937
 20
1.284535433070866
 30
0.0
 10
-0.4124251968503937
 20
1.284535433070866
 30
0.0
 10
-0.4124251968503937
 20
1.363393700787402
 30
0.0
 10
-0.4124251968503937
 20
1.363393700787402
 30
0.0
 10
-0.4124251968503937
 20
1.363393700787402
 30
0.0
 10
-0.4124251968503937
 20
1.367090551181103
 30
0.0
 10
-0.4127283464566929
 20
1.369590551181102
 30
0.0
 10
-0.4133149606299213
 20
1.370948818897638
 30
0.0
 10
-0.4133149606299213
 20
1.370948818897638
 30
0.0
 10
-0.4139251968503937
 20
1.372311023622047
 30
0.0
 10
-0.4148149606299213
 20
1.373283464566929
 30
0.0
 10
-0.4160078740157481
 20
1.373893700787402
 30
0.0
 10
-0.4160078740157481
 20
1.373893700787402
 30
0.0
 10
-0.4172007874015749
 20
1.374476377952756
 30
0.0
 10
-0.4195078740157481
 20
1.374783464566929
 30
0.0
 10
-0.4229251968503937
 20
1.374783464566929
 30
0.0
 10
-0.4229251968503937
 20
1.374783464566929
 30
0.0
 10
-0.4229251968503937
 20
1.374783464566929
 30
0.0
 10
-0.4267598425196851
 20
1.374783464566929
 30
0.0
 10
-0.4267598425196851
 20
1.374783464566929
 30
0.0
 10
-0.4267598425196851
 20
1.374783464566929
 30
0.0
 10
-0.4267598425196851
 20
1.374783464566929
 30
0.0
 10
-0.4267598425196851
 20
1.381700787401575
 30
0.0
 10
-0.4267598425196851
 20
1.381700787401575
 30
0.0
  0
SPLINE
  5
6B
330
1F
100
AcDbEntity
  8
LAYER_1
 62
   250
100
AcDbSpline
210
0.0
220
0.0
230
1.0
 70
    11
 71
     3
 72
    40
 73
    36
 74
     0
 42
0.0000000001
 43
0.0000000001
 40
0.0
 40
0.0
 40
0.0
 40
0.0
 40
0.1111111111111111
 40
0.1111111111111111
 40
0.1111111111111111
 40
0.1111111111111111
 40
0.2222222222222222
 40
0.2222222222222222
 40
0.2222222222222222
 40
0.2222222222222222
 40
0.3333333333333333
 40
0.3333333333333333
 40
0.3333333333333333
 40
0.3333333333333333
 40
0.4444444444444444
 40
0.4444444444444444
 40
0.4444444444444444
 40
0.4444444444444444
 40
0.5555555555555556
 40
0.5555555555555556
 40
0.5555555555555556
 40
0.5555555555555556
 40
0.6666666666666667
 40
0.6666666666666667
 40
0.6666666666666667
 40
0.6666666666666667
 40
0.7777777777777779
 40
0.7777777777777779
 40
0.7777777777777779
 40
0.7777777777777779
 40
0.8888888888888891
 40
0.8888888888888891
 40
0.8888888888888891
 40
0.8888888888888891
 40
1.0
 40
1.0
 40
1.0
 40
1.0
 10
-0.3972007874015748
 20
1.372673228346457
 30
0.0
 10
-0.3972007874015748
 20
1.372673228346457
 30
0.0
 10
-0.3972007874015748
 20
1.331090551181102
 30
0.0
 10
-0.3972007874015748
 20
1.331090551181102
 30
0.0
 10
-0.3972007874015748
 20
1.331090551181102
 30
0.0
 10
-0.3972007874015748
 20
1.331090551181102
 30
0.0
 10
-0.3764527559055118
 20
1.331090551181102
 30
0.0
 10
-0.3764527559055118
 20
1.331090551181102
 30
0.0
 10
-0.3764527559055118
 20
1.331090551181102
 30
0.0
 10
-0.3667598425196851
 20
1.331090551181102
 30
0.0
 10
-0.3600905511811024
 20
1.331535433070866
 30
0.0
 10
-0.3565354330708662
 20
1.332448818897638
 30
0.0
 10
-0.3565354330708662
 20
1.332448818897638
 30
0.0
 10
-0.3509251968503937
 20
1.33392125984252
 30
0.0
 10
-0.3466771653543307
 20
1.33642125984252
 30
0.0
 10
-0.3437047244094488
 20
1.339948818897638
 30
0.0
 10
-0.3437047244094488
 20
1.339948818897638
 30
0.0
 10
-0.3407598425196851
 20
1.343476377952756
 30
0.0
 10
-0.3392598425196851
 20
1.348007874015748
 30
0.0
 10
-0.3392598425196851
 20
1.353535433070866
 30
0.0
 10
-0.3392598425196851
 20
1.353535433070866
 30
0.0
 10
-0.3392598425196851
 20
1.358200787401575
 30
0.0
 10
-0.3406181102362205
 20
1.362090551181102
 30
0.0
 10
-0.3432874015748031
 20
1.365228346456693
 30
0.0
 10
-0.3432874015748031
 20
1.365228346456693
 30
0.0
 10
-0.3459803149606299
 20
1.368338582677166
 30
0.0
 10
-0.3495905511811024
 20
1.370476377952756
 30
0.0
 10
-0.3540905511811024
 20
1.371618110236221
 30
0.0
 10
-0.3540905511811024
 20
1.371618110236221
 30
0.0
 10
-0.3570078740157481
 20
1.372311023622047
 30
0.0
 10
-0.3630905511811024
 20
1.372673228346457
 30
0.0
 10
-0.3723149606299213
 20
1.372673228346457
 30
0.0
 10
-0.3723149606299213
 20
1.372673228346457
 30
0.0
 10
-0.3723149606299213
 20
1.372673228346457
 30
0.0
 10
-0.3972007874015748
 20
1.372673228346457
 30
0.0
 10
-0.3972007874015748
 20
1.372673228346457
 30
0.0
  0
SPLINE
  5
6C
330
1F
100
AcDbEntity
  8
LAYER_1
 62
   250
100
AcDbSpline
210
0.0
220
0.0
230
1.0
 70
    11
 71
     3
 72
    52
 73
    48
 74
     0
 42
0.0000000001
 43
0.0000000001
 40
0.0
 40
0.0
 40
0.0
 40
0.0
 40
0.0833333333333333
 40
0.0833333333333333
 40
0.0833333333333333
 40
0.0833333333333333
 40
0.1666666666666667
 40
0.1666666666666667
 40
0.1666666666666667
 40
0.1666666666666667
 40
0.25
 40
0.25
 40
0.25
 40
0.25
 40
0.3333333333333333
 40
0.3333333333333333
 40
0.3333333333333333
 40
0.3333333333333333
 40
0.4166666666666666
 40
0.4166666666666666
 40
0.4166666666666666
 40
0.4166666666666666
 40
0.4999999999999999
 40
0.4999999999999999
 40
0.4999999999999999
 40
0.4999999999999999
 40
0.5833333333333333
 40
0.5833333333333333
 40
0.5833333333333333
 40
0.5833333333333333
 40
0.6666666666666666
 40
0.6666666666666666
 40
0.6666666666666666
 40
0.6666666666666666
 40
0.75
 40
0.75
 40
0.75
 40
0.75
 40
0.8333333333333334
 40
0.8333333333333334
 40
0.8333333333333334
 40
0.8333333333333334
 40
0.9166666666666667
 40
0.9166666666666667
 40
0.9166666666666667
 40
0.9166666666666667
 40
1.0
 40
1.0
 40
1.0
 40
1.0
 10
-0.3972007874015748
 20
1.323255905511811
 30
0.0
 10
-0.3972007874015748
 20
1.323255905511811
 30
0.0
 10
-0.3972007874015748
 20
1.286007874015748
 30
0.0
 10
-0.3972007874015748
 20
1.286007874015748
 30
0.0
 10
-0.3972007874015748
 20
1.286007874015748
 30
0.0
 10
-0.3972007874015748
 20
1.282255905511811
 30
0.0
 10
-0.3970354330708661
 20
1.280035433070866
 30
0.0
 10
-0.396732283464567
 20
1.279311023622047
 30
0.0
 10
-0.396732283464567
 20
1.279311023622047
 30
0.0
 10
-0.3962874015748032
 20
1.278338582677165
 30
0.0
 10
-0.3954251968503937
 20
1.277673228346457
 30
0.0
 10
-0.3941181102362205
 20
1.277283464566929
 30
0.0
 10
-0.3941181102362205
 20
1.277283464566929
 30
0.0
 10
-0.3932007874015748
 20
1.277007874015748
 30
0.0
 10
-0.3905905511811024
 20
1.276866141732284
 30
0.0
 10
-0.3863149606299213
 20
1.276866141732284
 30
0.0
 10
-0.3863149606299213
 20
1.276866141732284
 30
0.0
 10
-0.3863149606299213
 20
1.276866141732284
 30
0.0
 10
-0.3752322834645669
 20
1.276866141732284
 30
0.0
 10
-0.3752322834645669
 20
1.276866141732284
 30
0.0
 10
-0.3752322834645669
 20
1.276866141732284
 30
0.0
 10
-0.3642874015748032
 20
1.276866141732284
 30
0.0
 10
-0.3564527559055118
 20
1.27748031496063
 30
0.0
 10
-0.3517598425196851
 20
1.278700787401575
 30
0.0
 10
-0.3517598425196851
 20
1.278700787401575
 30
0.0
 10
-0.3470629921259842
 20
1.27992125984252
 30
0.0
 10
-0.3430629921259843
 20
1.282507874015748
 30
0.0
 10
-0.3397598425196851
 20
1.286452755905512
 30
0.0
 10
-0.3397598425196851
 20
1.286452755905512
 30
0.0
 10
-0.3364527559055118
 20
1.290366141732284
 30
0.0
 10
-0.3347874015748032
 20
1.295118110236221
 30
0.0
 10
-0.3347874015748032
 20
1.300645669291339
 30
0.0
 10
-0.3347874015748032
 20
1.300645669291339
 30
0.0
 10
-0.3347874015748032
 20
1.305311023622047
 30
0.0
 10
-0.3361456692913386
 20
1.309448818897638
 30
0.0
 10
-0.3388149606299213
 20
1.313062992125984
 30
0.0
 10
-0.3388149606299213
 20
1.313062992125984
 30
0.0
 10
-0.3415078740157481
 20
1.316673228346457
 30
0.0
 10
-0.345232283464567
 20
1.319255905511811
 30
0.0
 10
-0.3499803149606299
 20
1.320866141732284
 30
0.0
 10
-0.3499803149606299
 20
1.320866141732284
 30
0.0
 10
-0.3547322834645669
 20
1.32248031496063
 30
0.0
 10
-0.3631456692913386
 20
1.323255905511811
 30
0.0
 10
-0.3752322834645669
 20
1.323255905511811
 30
0.0
 10
-0.3752322834645669
 20
1.323255905511811
 30
0.0
 10
-0.3752322834645669
 20
1.323255905511811
 30
0.0
 10
-0.3972007874015748
 20
1.323255905511811
 30
0.0
 10
-0.3972007874015748
 20
1.323255905511811
 30
0.0
  0
SPLINE
  5
6D
330
1F
100
AcDbEntity
  8
LAYER_1
 62
   250
100
AcDbSpline
210
0.0
220
0.0
230
1.0
 70
    11
 71
     3
 72
   112
 73
   108
 74
     0
 42
0.0000000001
 43
0.0000000001
 40
0.0
 40
0.0
 40
0.0
 40
0.0
 40
0.037037037037037
 40
0.037037037037037
 40
0.037037037037037
 40
0.037037037037037
 40
0.0740740740740741
 40
0.0740740740740741
 40
0.0740740740740741
 40
0.0740740740740741
 40
0.1111111111111111
 40
0.1111111111111111
 40
0.1111111111111111
 40
0.1111111111111111
 40
0.1481481481481481
 40
0.1481481481481481
 40
0.1481481481481481
 40
0.1481481481481481
 40
0.1851851851851852
 40
0.1851851851851852
 40
0.1851851851851852
 40
0.1851851851851852
 40
0.2222222222222222
 40
0.2222222222222222
 40
0.2222222222222222
 40
0.2222222222222222
 40
0.2592592592592592
 40
0.2592592592592592
 40
0.2592592592592592
 40
0.2592592592592592
 40
0.2962962962962963
 40
0.2962962962962963
 40
0.2962962962962963
 40
0.2962962962962963
 40
0.3333333333333333
 40
0.3333333333333333
 40
0.3333333333333333
 40
0.3333333333333333
 40
0.3703703703703704
 40
0.3703703703703704
 40
0.3703703703703704
 40
0.3703703703703704
 40
0.4074074074074074
 40
0.4074074074074074
 40
0.4074074074074074
 40
0.4074074074074074
 40
0.4444444444444444
 40
0.4444444444444444
 40
0.4444444444444444
 40
0.4444444444444444
 40
0.4814814814814815
 40
0.4814814814814815
 40
0.4814814814814815
 40
0.4814814814814815
 40
0.5185185185185185
 40
0.5185185185185185
 40
0.5185185185185185
 40
0.5185185185185185
 40
0.5555555555555556
 40
0.5555555555555556
 40
0.5555555555555556
 40
0.5555555555555556
 40
0.5925925925925926
 40
0.5925925925925926
 40
0.5925925925925926
 40
0.5925925925925926
 40
0.6296296296296295
 40
0.6296296296296295
 40
0.6296296296296295
 40
0.6296296296296295
 40
0.6666666666666665
 40
0.6666666666666665
 40
0.6666666666666665
 40
0.6666666666666665
 40
0.7037037037037035
 40
0.7037037037037035
 40
0.7037037037037035
 40
0.7037037037037035
 40
0.7407407407407405
 40
0.7407407407407405
 40
0.7407407407407405
 40
0.7407407407407405
 40
0.7777777777777775
 40
0.7777777777777775
 40
0.7777777777777775
 40
0.7777777777777775
 40
0.8148148148148144
 40
0.8148148148148144
 40
0.8148148148148144
 40
0.8148148148148144
 40
0.8518518518518514
 40
0.8518518518518514
 40
0.8518518518518514
 40
0.8518518518518514
 40
0.8888888888888884
 40
0.8888888888888884
 40
0.8888888888888884
 40
0.8888888888888884
 40
0.9259259259259254
 40
0.9259259259259254
 40
0.9259259259259254
 40
0.9259259259259254
 40
0.9629629629629624
 40
0.9629629629629624
 40
0.9629629629629624
 40
0.9629629629629624
 40
1.0
 40
1.0
 40
1.0
 40
1.0
 10
-0.2600944881889764
 20
1.381700787401575
 30
0.0
 10
-0.2600944881889764
 20
1.381700787401575
 30
0.0
 10
-0.2466771653543307
 20
1.381700787401575
 30
0.0
 10
-0.2466771653543307
 20
1.381700787401575
 30
0.0
 10
-0.2466771653543307
 20
1.381700787401575
 30
0.0
 10
-0.2466771653543307
 20
1.381700787401575
 30
0.0
 10
-0.2114291338582677
 20
1.286811023622047
 30
0.0
 10
-0.2114291338582677
 20
1.286811023622047
 30
0.0
 10
-0.2114291338582677
 20
1.286811023622047
 30
0.0
 10
-0.2097047244094488
 20
1.282035433070866
 30
0.0
 10
-0.2079566929133858
 20
1.278866141732284
 30
0.0
 10
-0.2061771653543307
 20
1.277338582677166
 30
0.0
 10
-0.2061771653543307
 20
1.277338582677166
 30
0.0
 10
-0.2044291338582677
 20
1.275783464566929
 30
0.0
 10
-0.2020393700787402
 20
1.275007874015748
 30
0.0
 10
-0.1990669291338583
 20
1.275007874015748
 30
0.0
 10
-0.1990669291338583
 20
1.275007874015748
 30
0.0
 10
-0.1990669291338583
 20
1.275007874015748
 30
0.0
 10
-0.1972874015748032
 20
1.275007874015748
 30
0.0
 10
-0.1972874015748032
 20
1.275007874015748
 30
0.0
 10
-0.1972874015748032
 20
1.275007874015748
 30
0.0
 10
-0.1972874015748032
 20
1.275007874015748
 30
0.0
 10
-0.1972874015748032
 20
1.268173228346457
 30
0.0
 10
-0.1972874015748032
 20
1.268173228346457
 30
0.0
 10
-0.1972874015748032
 20
1.268173228346457
 30
0.0
 10
-0.1972874015748032
 20
1.268173228346457
 30
0.0
 10
-0.2377322834645669
 20
1.268173228346457
 30
0.0
 10
-0.2377322834645669
 20
1.268173228346457
 30
0.0
 10
-0.2377322834645669
 20
1.268173228346457
 30
0.0
 10
-0.2377322834645669
 20
1.268173228346457
 30
0.0
 10
-0.2377322834645669
 20
1.275007874015748
 30
0.0
 10
-0.2377322834645669
 20
1.275007874015748
 30
0.0
 10
-0.2377322834645669
 20
1.275007874015748
 30
0.0
 10
-0.2364291338582677
 20
1.275118110236221
 30
0.0
 10
-0.2351496062992126
 20
1.275173228346457
 30
0.0
 10
-0.2338976377952756
 20
1.275173228346457
 30
0.0
 10
-0.2338976377952756
 20
1.275173228346457
 30
0.0
 10
-0.2312874015748032
 20
1.275173228346457
 30
0.0
 10
-0.2295944881889764
 20
1.275452755905512
 30
0.0
 10
-0.228759842519685
 20
1.27598031496063
 30
0.0
 10
-0.228759842519685
 20
1.27598031496063
 30
0.0
 10
-0.2272047244094488
 20
1.277007874015748
 30
0.0
 10
-0.2264015748031496
 20
1.278311023622047
 30
0.0
 10
-0.2264015748031496
 20
1.279893700787402
 30
0.0
 10
-0.2264015748031496
 20
1.279893700787402
 30
0.0
 10
-0.2264015748031496
 20
1.281035433070866
 30
0.0
 10
-0.2271771653543307
 20
1.283811023622047
 30
0.0
 10
-0.2286771653543307
 20
1.288283464566929
 30
0.0
 10
-0.2286771653543307
 20
1.288283464566929
 30
0.0
 10
-0.2286771653543307
 20
1.288283464566929
 30
0.0
 10
-0.2361771653543307
 20
1.310255905511811
 30
0.0
 10
-0.2361771653543307
 20
1.310255905511811
 30
0.0
 10
-0.2361771653543307
 20
1.310255905511811
 30
0.0
 10
-0.2361771653543307
 20
1.310255905511811
 30
0.0
 10
-0.2773425196850394
 20
1.310255905511811
 30
0.0
 10
-0.2773425196850394
 20
1.310255905511811
 30
0.0
 10
-0.2773425196850394
 20
1.310255905511811
 30
0.0
 10
-0.2773425196850394
 20
1.310255905511811
 30
0.0
 10
-0.2861496062992126
 20
1.285673228346457
 30
0.0
 10
-0.2861496062992126
 20
1.285673228346457
 30
0.0
 10
-0.2861496062992126
 20
1.285673228346457
 30
0.0
 10
-0.2870669291338583
 20
1.283118110236221
 30
0.0
 10
-0.2875393700787401
 20
1.281366141732284
 30
0.0
 10
-0.2875393700787401
 20
1.280366141732284
 30
0.0
 10
-0.2875393700787401
 20
1.280366141732284
 30
0.0
 10
-0.2875393700787401
 20
1.279283464566929
 30
0.0
 10
-0.2872322834645669
 20
1.278338582677165
 30
0.0
 10
-0.2866771653543307
 20
1.277535433070866
 30
0.0
 10
-0.2866771653543307
 20
1.277535433070866
 30
0.0
 10
-0.2860944881889764
 20
1.276728346456693
 30
0.0
 10
-0.2853425196850394
 20
1.276118110236221
 30
0.0
 10
-0.2843425196850394
 20
1.275700787401575
 30
0.0
 10
-0.2843425196850394
 20
1.275700787401575
 30
0.0
 10
-0.2833700787401575
 20
1.275283464566929
 30
0.0
 10
-0.2818149606299213
 20
1.275090551181102
 30
0.0
 10
-0.2796220472440945
 20
1.275090551181102
 30
0.0
 10
-0.2796220472440945
 20
1.275090551181102
 30
0.0
 10
-0.2781771653543307
 20
1.275090551181102
 30
0.0
 10
-0.276984251968504
 20
1.275062992125984
 30
0.0
 10
-0.2760669291338583
 20
1.275007874015748
 30
0.0
 10
-0.2760669291338583
 20
1.275007874015748
 30
0.0
 10
-0.2760669291338583
 20
1.275007874015748
 30
0.0
 10
-0.2760669291338583
 20
1.268173228346457
 30
0.0
 10
-0.2760669291338583
 20
1.268173228346457
 30
0.0
 10
-0.2760669291338583
 20
1.268173228346457
 30
0.0
 10
-0.2760669291338583
 20
1.268173228346457
 30
0.0
 10
-0.3099842519685039
 20
1.268173228346457
 30
0.0
 10
-0.3099842519685039
 20
1.268173228346457
 30
0.0
 10
-0.3099842519685039
 20
1.268173228346457
 30
0.0
 10
-0.3099842519685039
 20
1.268173228346457
 30
0.0
 10
-0.3099842519685039
 20
1.275007874015748
 30
0.0
 10
-0.3099842519685039
 20
1.275007874015748
 30
0.0
 10
-0.3099842519685039
 20
1.275007874015748
 30
0.0
 10
-0.3068425196850394
 20
1.275007874015748
 30
0.0
 10
-0.3045669291338583
 20
1.275311023622047
 30
0.0
 10
-0.3032047244094488
 20
1.275952755905512
 30
0.0
 10
-0.3032047244094488
 20
1.275952755905512
 30
0.0
 10
-0.3018149606299213
 20
1.276562992125984
 30
0.0
 10
-0.3005944881889764
 20
1.277562992125984
 30
0.0
 10
-0.2995669291338583
 20
1.278952755905512
 30
0.0
 10
-0.2995669291338583
 20
1.278952755905512
 30
0.0
 10
-0.2985393700787402
 20
1.280338582677165
 30
0.0
 10
-0.2971771653543307
 20
1.283255905511811
 30
0.0
 10
-0.2955118110236221
 20
1.287700787401575
 30
0.0
 10
-0.2955118110236221
 20
1.287700787401575
 30
0.0
 10
-0.2955118110236221
 20
1.287700787401575
 30
0.0
 10
-0.2600944881889764
 20
1.381700787401575
 30
0.0
 10
-0.2600944881889764
 20
1.381700787401575
 30
0.0
  0
SPLINE
  5
6E
330
1F
100
AcDbEntity
  8
LAYER_1
 62
   250
100
AcDbSpline
210
0.0
220
0.0
230
1.0
 70
    11
 71
     3
 72
    16
 73
    12
 74
     0
 42
0.0000000001
 43
0.0000000001
 40
0.0
 40
0.0
 40
0.0
 40
0.0
 40
0.3333333333333333
 40
0.3333333333333333
 40
0.3333333333333333
 40
0.3333333333333333
 40
0.6666666666666666
 40
0.6666666666666666
 40
0.6666666666666666
 40
0.6666666666666666
 40
1.0
 40
1.0
 40
1.0
 40
1.0
 10
-0.2743425196850394
 20
1.318228346456693
 30
0.0
 10
-0.2743425196850394
 20
1.318228346456693
 30
0.0
 10
-0.2392598425196851
 20
1.318228346456693
 30
0.0
 10
-0.2392598425196851
 20
1.318228346456693
 30
0.0
 10
-0.2392598425196851
 20
1.318228346456693
 30
0.0
 10
-0.2392598425196851
 20
1.318228346456693
 30
0.0
 10
-0.2568425196850394
 20
1.367062992125984
 30
0.0
 10
-0.2568425196850394
 20
1.367062992125984
 30
0.0
 10
-0.2568425196850394
 20
1.367062992125984
 30
0.0
 10
-0.2568425196850394
 20
1.367062992125984
 30
0.0
 10
-0.2743425196850394
 20
1.318228346456693
 30
0.0
 10
-0.2743425196850394
 20
1.318228346456693
 30
0.0
  0
SPLINE
  5
6F
330
1F
100
AcDbEntity
  8
LAYER_1
 62
   250
100
AcDbSpline
210
0.0
220
0.0
230
1.0
 70
    11
 71
     3
 72
    72
 73
    68
 74
     0
 42
0.0000000001
 43
0.0000000001
 40
0.0
 40
0.0
 40
0.0
 40
0.0
 40
0.0588235294117647
 40
0.0588235294117647
 40
0.0588235294117647
 40
0.0588235294117647
 40
0.1176470588235294
 40
0.1176470588235294
 40
0.1176470588235294
 40
0.1176470588235294
 40
0.1764705882352941
 40
0.1764705882352941
 40
0.1764705882352941
 40
0.1764705882352941
 40
0.2352941176470588
 40
0.2352941176470588
 40
0.2352941176470588
 40
0.2352941176470588
 40
0.2941176470588235
 40
0.2941176470588235
 40
0.2941176470588235
 40
0.2941176470588235
 40
0.3529411764705883
 40
0.3529411764705883
 40
0.3529411764705883
 40
0.3529411764705883
 40
0.411764705882353
 40
0.411764705882353
 40
0.411764705882353
 40
0.411764705882353
 40
0.4705882352941177
 40
0.4705882352941177
 40
0.4705882352941177
 40
0.4705882352941177
 40
0.5294117647058824
 40
0.5294117647058824
 40
0.5294117647058824
 40
0.5294117647058824
 40
0.5882352941176471
 40
0.5882352941176471
 40
0.5882352941176471
 40
0.5882352941176471
 40
0.6470588235294118
 40
0.6470588235294118
 40
0.6470588235294118
 40
0.6470588235294118
 40
0.7058823529411765
 40
0.7058823529411765
 40
0.7058823529411765
 40
0.7058823529411765
 40
0.7647058823529412
 40
0.7647058823529412
 40
0.7647058823529412
 40
0.7647058823529412
 40
0.823529411764706
 40
0.823529411764706
 40
0.823529411764706
 40
0.823529411764706
 40
0.8823529411764707
 40
0.8823529411764707
 40
0.8823529411764707
 40
0.8823529411764707
 40
0.9411764705882354
 40
0.9411764705882354
 40
0.9411764705882354
 40
0.9411764705882354
 40
1.0
 40
1.0
 40
1.0
 40
1.0
 10
-0.034259842519685
 20
1.381700787401575
 30
0.0
 10
-0.034259842519685
 20
1.381700787401575
 30
0.0
 10
-0.0281771653543307
 20
1.381700787401575
 30
0.0
 10
-0.0281771653543307
 20
1.381700787401575
 30
0.0
 10
-0.0281771653543307
 20
1.381700787401575
 30
0.0
 10
-0.0281771653543307
 20
1.381700787401575
 30
0.0
 10
-0.0281771653543307
 20
1.287452755905512
 30
0.0
 10
-0.0281771653543307
 20
1.287452755905512
 30
0.0
 10
-0.0281771653543307
 20
1.287452755905512
 30
0.0
 10
-0.0281771653543307
 20
1.283007874015748
 30
0.0
 10
-0.0278700787401575
 20
1.280145669291339
 30
0.0
 10
-0.0273149606299213
 20
1.278866141732284
 30
0.0
 10
-0.0273149606299213
 20
1.278866141732284
 30
0.0
 10
-0.0267322834645669
 20
1.277590551181102
 30
0.0
 10
-0.0258149606299213
 20
1.276645669291339
 30
0.0
 10
-0.024511811023622
 20
1.27598031496063
 30
0.0
 10
-0.024511811023622
 20
1.27598031496063
 30
0.0
 10
-0.0232047244094488
 20
1.275338582677166
 30
0.0
 10
-0.0206220472440945
 20
1.275007874015748
 30
0.0
 10
-0.016759842519685
 20
1.275007874015748
 30
0.0
 10
-0.016759842519685
 20
1.275007874015748
 30
0.0
 10
-0.016759842519685
 20
1.275007874015748
 30
0.0
 10
-0.0087874015748031
 20
1.275007874015748
 30
0.0
 10
-0.0087874015748031
 20
1.275007874015748
 30
0.0
 10
-0.0087874015748031
 20
1.275007874015748
 30
0.0
 10
-0.0087874015748031
 20
1.275007874015748
 30
0.0
 10
-0.0087874015748031
 20
1.268173228346457
 30
0.0
 10
-0.0087874015748031
 20
1.268173228346457
 30
0.0
 10
-0.0087874015748031
 20
1.268173228346457
 30
0.0
 10
-0.0087874015748031
 20
1.268173228346457
 30
0.0
 10
-0.0624251968503937
 20
1.268173228346457
 30
0.0
 10
-0.0624251968503937
 20
1.268173228346457
 30
0.0
 10
-0.0624251968503937
 20
1.268173228346457
 30
0.0
 10
-0.0624251968503937
 20
1.268173228346457
 30
0.0
 10
-0.0624251968503937
 20
1.275007874015748
 30
0.0
 10
-0.0624251968503937
 20
1.275007874015748
 30
0.0
 10
-0.0624251968503937
 20
1.275007874015748
 30
0.0
 10
-0.0624251968503937
 20
1.275007874015748
 30
0.0
 10
-0.0535669291338583
 20
1.275007874015748
 30
0.0
 10
-0.0535669291338583
 20
1.275007874015748
 30
0.0
 10
-0.0535669291338583
 20
1.275007874015748
 30
0.0
 10
-0.0497047244094488
 20
1.275007874015748
 30
0.0
 10
-0.0471496062992126
 20
1.275338582677166
 30
0.0
 10
-0.0458700787401575
 20
1.276035433070866
 30
0.0
 10
-0.0458700787401575
 20
1.276035433070866
 30
0.0
 10
-0.0445944881889764
 20
1.276700787401575
 30
0.0
 10
-0.0435944881889764
 20
1.277783464566929
 30
0.0
 10
-0.0428976377952756
 20
1.279283464566929
 30
0.0
 10
-0.0428976377952756
 20
1.279283464566929
 30
0.0
 10
-0.0422047244094488
 20
1.280783464566929
 30
0.0
 10
-0.0418425196850394
 20
1.283507874015748
 30
0.0
 10
-0.0418425196850394
 20
1.287452755905512
 30
0.0
 10
-0.0418425196850394
 20
1.287452755905512
 30
0.0
 10
-0.0418425196850394
 20
1.287452755905512
 30
0.0
 10
-0.0418425196850394
 20
1.36492125984252
 30
0.0
 10
-0.0418425196850394
 20
1.36492125984252
 30
0.0
 10
-0.0418425196850394
 20
1.36492125984252
 30
0.0
 10
-0.0418425196850394
 20
1.36492125984252
 30
0.0
 10
-0.0624251968503937
 20
1.36492125984252
 30
0.0
 10
-0.0624251968503937
 20
1.36492125984252
 30
0.0
 10
-0.0624251968503937
 20
1.36492125984252
 30
0.0
 10
-0.0624251968503937
 20
1.36492125984252
 30
0.0
 10
-0.0624251968503937
 20
1.37192125984252
 30
0.0
 10
-0.0624251968503937
 20
1.37192125984252
 30
0.0
 10
-0.0624251968503937
 20
1.37192125984252
 30
0.0
 10
-0.0512047244094488
 20
1.373503937007874
 30
0.0
 10
-0.0418149606299213
 20
1.376755905511811
 30
0.0
 10
-0.034259842519685
 20
1.381700787401575
 30
0.0
  0
SPLINE
  5
70
330
1F
100
AcDbEntity
  8
LAYER_1
 62
   250
100
AcDbSpline
210
0.0
220
0.0
230
1.0
 70
    11
 71
     3
 72
    80
 73
    76
 74
     0
 42
0.0000000001
 43
0.0000000001
 40
0.0
 40
0.0
 40
0.0
 40
0.0
 40
0.0526315789473684
 40
0.0526315789473684
 40
0.0526315789473684
 40
0.0526315789473684
 40
0.1052631578947368
 40
0.1052631578947368
 40
0.1052631578947368
 40
0.1052631578947368
 40
0.1578947368421053
 40
0.1578947368421053
 40
0.1578947368421053
 40
0.1578947368421053
 40
0.2105263157894737
 40
0.2105263157894737
 40
0.2105263157894737
 40
0.2105263157894737
 40
0.2631578947368421
 40
0.2631578947368421
 40
0.2631578947368421
 40
0.2631578947368421
 40
0.3157894736842105
 40
0.3157894736842105
 40
0.3157894736842105
 40
0.3157894736842105
 40
0.3684210526315789
 40
0.3684210526315789
 40
0.3684210526315789
 40
0.3684210526315789
 40
0.4210526315789474
 40
0.4210526315789474
 40
0.4210526315789474
 40
0.4210526315789474
 40
0.4736842105263158
 40
0.4736842105263158
 40
0.4736842105263158
 40
0.4736842105263158
 40
0.5263157894736842
 40
0.5263157894736842
 40
0.5263157894736842
 40
0.5263157894736842
 40
0.5789473684210527
 40
0.5789473684210527
 40
0.5789473684210527
 40
0.5789473684210527
 40
0.631578947368421
 40
0.631578947368421
 40
0.631578947368421
 40
0.631578947368421
 40
0.6842105263157894
 40
0.6842105263157894
 40
0.6842105263157894
 40
0.6842105263157894
 40
0.7368421052631577
 40
0.7368421052631577
 40
0.7368421052631577
 40
0.7368421052631577
 40
0.7894736842105261
 40
0.7894736842105261
 40
0.7894736842105261
 40
0.7894736842105261
 40
0.8421052631578945
 40
0.8421052631578945
 40
0.8421052631578945
 40
0.8421052631578945
 40
0.8947368421052628
 40
0.8947368421052628
 40
0.8947368421052628
 40
0.8947368421052628
 40
0.9473684210526312
 40
0.9473684210526312
 40
0.9473684210526312
 40
0.9473684210526312
 40
1.0
 40
1.0
 40
1.0
 40
1.0
 10
0.0311574803149606
 20
1.385838582677165
 30
0.0
 10
0.0311574803149606
 20
1.385838582677165
 30
0.0
 10
0.0365472440944882
 20
1.385838582677165
 30
0.0
 10
0.0365472440944882
 20
1.385838582677165
 30
0.0
 10
0.0365472440944882
 20
1.385838582677165
 30
0.0
 10
0.0365472440944882
 20
1.385838582677165
 30
0.0
 10
0.0375196850393701
 20
1.381700787401575
 30
0.0
 10
0.0375196850393701
 20
1.381700787401575
 30
0.0
 10
0.0375196850393701
 20
1.381700787401575
 30
0.0
 10
0.0375196850393701
 20
1.381700787401575
 30
0.0
 10
0.1086299212598425
 20
1.381700787401575
 30
0.0
 10
0.1086299212598425
 20
1.381700787401575
 30
0.0
 10
0.1086299212598425
 20
1.381700787401575
 30
0.0
 10
0.1086299212598425
 20
1.381700787401575
 30
0.0
 10
0.1086299212598425
 20
1.374783464566929
 30
0.0
 10
0.1086299212598425
 20
1.374783464566929
 30
0.0
 10
0.1086299212598425
 20
1.374783464566929
 30
0.0
 10
0.1001299212598425
 20
1.364948818897638
 30
0.0
 10
0.0924055118110236
 20
1.353783464566929
 30
0.0
 10
0.085492125984252
 20
1.341200787401575
 30
0.0
 10
0.085492125984252
 20
1.341200787401575
 30
0.0
 10
0.0785748031496063
 20
1.328645669291339
 30
0.0
 10
0.0732125984251969
 20
1.315866141732283
 30
0.0
 10
0.0694055118110236
 20
1.302838582677165
 30
0.0
 10
0.0694055118110236
 20
1.302838582677165
 30
0.0
 10
0.0666574803149606
 20
1.293452755905512
 30
0.0
 10
0.0644094488188976
 20
1.281893700787402
 30
0.0
 10
0.0626574803149606
 20
1.268173228346457
 30
0.0
 10
0.0626574803149606
 20
1.268173228346457
 30
0.0
 10
0.0626574803149606
 20
1.268173228346457
 30
0.0
 10
0.045992125984252
 20
1.268173228346457
 30
0.0
 10
0.045992125984252
 20
1.268173228346457
 30
0.0
 10
0.045992125984252
 20
1.268173228346457
 30
0.0
 10
0.0476023622047244
 20
1.280283464566929
 30
0.0
 10
0.0502677165354331
 20
1.291590551181102
 30
0.0
 10
0.053992125984252
 20
1.302118110236221
 30
0.0
 10
0.053992125984252
 20
1.302118110236221
 30
0.0
 10
0.0577125984251969
 20
1.312645669291339
 30
0.0
 10
0.0630748031496063
 20
1.323645669291339
 30
0.0
 10
0.0701023622047244
 20
1.335118110236221
 30
0.0
 10
0.0701023622047244
 20
1.335118110236221
 30
0.0
 10
0.0771299212598425
 20
1.346590551181103
 30
0.0
 10
0.0856574803149606
 20
1.358035433070866
 30
0.0
 10
0.0957125984251969
 20
1.369476377952756
 30
0.0
 10
0.0957125984251969
 20
1.369476377952756
 30
0.0
 10
0.0957125984251969
 20
1.369476377952756
 30
0.0
 10
0.044992125984252
 20
1.369476377952756
 30
0.0
 10
0.044992125984252
 20
1.369476377952756
 30
0.0
 10
0.044992125984252
 20
1.369476377952756
 30
0.0
 10
0.0413228346456693
 20
1.369476377952756
 30
0.0
 10
0.0387952755905512
 20
1.369311023622047
 30
0.0
 10
0.0374370078740158
 20
1.36892125984252
 30
0.0
 10
0.0374370078740158
 20
1.36892125984252
 30
0.0
 10
0.0360748031496063
 20
1.368535433070866
 30
0.0
 10
0.0350196850393701
 20
1.367948818897638
 30
0.0
 10
0.0342677165354331
 20
1.367145669291339
 30
0.0
 10
0.0342677165354331
 20
1.367145669291339
 30
0.0
 10
0.033492125984252
 20
1.366311023622047
 30
0.0
 10
0.0328503937007874
 20
1.364866141732284
 30
0.0
 10
0.0322952755905512
 20
1.362811023622047
 30
0.0
 10
0.0322952755905512
 20
1.362811023622047
 30
0.0
 10
0.0322952755905512
 20
1.362811023622047
 30
0.0
 10
0.0319094488188976
 20
1.361283464566929
 30
0.0
 10
0.0319094488188976
 20
1.361283464566929
 30
0.0
 10
0.0319094488188976
 20
1.361283464566929
 30
0.0
 10
0.0319094488188976
 20
1.361283464566929
 30
0.0
 10
0.0291299212598425
 20
1.351673228346457
 30
0.0
 10
0.0291299212598425
 20
1.351673228346457
 30
0.0
 10
0.0291299212598425
 20
1.351673228346457
 30
0.0
 10
0.0291299212598425
 20
1.351673228346457
 30
0.0
 10
0.0222125984251969
 20
1.353145669291339
 30
0.0
 10
0.0222125984251969
 20
1.353145669291339
 30
0.0
 10
0.0222125984251969
 20
1.353145669291339
 30
0.0
 10
0.0222125984251969
 20
1.353145669291339
 30
0.0
 10
0.0311574803149606
 20
1.385838582677165
 30
0.0
 10
0.0311574803149606
 20
1.385838582677165
 30
0.0
  0
SPLINE
  5
71
330
1F
100
AcDbEntity
  8
LAYER_1
 62
   250
100
AcDbSpline
210
0.0
220
0.0
230
1.0
 70
    11
 71
     3
 72
    76
 73
    72
 74
     0
 42
0.0000000001
 43
0.0000000001
 40
0.0
 40
0.0
 40
0.0
 40
0.0
 40
0.0555555555555556
 40
0.0555555555555556
 40
0.0555555555555556
 40
0.0555555555555556
 40
0.1111111111111111
 40
0.1111111111111111
 40
0.1111111111111111
 40
0.1111111111111111
 40
0.1666666666666667
 40
0.1666666666666667
 40
0.1666666666666667
 40
0.1666666666666667
 40
0.2222222222222222
 40
0.2222222222222222
 40
0.2222222222222222
 40
0.2222222222222222
 40
0.2777777777777778
 40
0.2777777777777778
 40
0.2777777777777778
 40
0.2777777777777778
 40
0.3333333333333334
 40
0.3333333333333334
 40
0.3333333333333334
 40
0.3333333333333334
 40
0.388888888888889
 40
0.388888888888889
 40
0.388888888888889
 40
0.388888888888889
 40
0.4444444444444445
 40
0.4444444444444445
 40
0.4444444444444445
 40
0.4444444444444445
 40
0.5000000000000001
 40
0.5000000000000001
 40
0.5000000000000001
 40
0.5000000000000001
 40
0.5555555555555557
 40
0.5555555555555557
 40
0.5555555555555557
 40
0.5555555555555557
 40
0.6111111111111113
 40
0.6111111111111113
 40
0.6111111111111113
 40
0.6111111111111113
 40
0.6666666666666669
 40
0.6666666666666669
 40
0.6666666666666669
 40
0.6666666666666669
 40
0.7222222222222224
 40
0.7222222222222224
 40
0.7222222222222224
 40
0.7222222222222224
 40
0.777777777777778
 40
0.777777777777778
 40
0.777777777777778
 40
0.777777777777778
 40
0.8333333333333336
 40
0.8333333333333336
 40
0.8333333333333336
 40
0.8333333333333336
 40
0.8888888888888892
 40
0.8888888888888892
 40
0.8888888888888892
 40
0.8888888888888892
 40
0.9444444444444448
 40
0.9444444444444448
 40
0.9444444444444448
 40
0.9444444444444448
 40
1.0
 40
1.0
 40
1.0
 40
1.0
 10
0.1809094488188976
 20
1.331173228346457
 30
0.0
 10
0.1873267716535433
 20
1.328728346456693
 30
0.0
 10
0.1922125984251969
 20
1.32642125984252
 30
0.0
 10
0.1955748031496063
 20
1.324255905511811
 30
0.0
 10
0.1955748031496063
 20
1.324255905511811
 30
0.0
 10
0.200492125984252
 20
1.321090551181102
 30
0.0
 10
0.2042125984251969
 20
1.317393700787402
 30
0.0
 10
0.2067125984251969
 20
1.313145669291339
 30
0.0
 10
0.2067125984251969
 20
1.313145669291339
 30
0.0
 10
0.2092125984251969
 20
1.308866141732284
 30
0.0
 10
0.2104645669291339
 20
1.304255905511811
 30
0.0
 10
0.2104645669291339
 20
1.299255905511811
 30
0.0
 10
0.2104645669291339
 20
1.299255905511811
 30
0.0
 10
0.2104645669291339
 20
1.290311023622047
 30
0.0
 10
0.2066023622047244
 20
1.282562992125984
 30
0.0
 10
0.1989094488188976
 20
1.276035433070866
 30
0.0
 10
0.1989094488188976
 20
1.276035433070866
 30
0.0
 10
0.1911850393700788
 20
1.26948031496063
 30
0.0
 10
0.1807992125984252
 20
1.266228346456693
 30
0.0
 10
0.167740157480315
 20
1.266228346456693
 30
0.0
 10
0.167740157480315
 20
1.266228346456693
 30
0.0
 10
0.1539094488188977
 20
1.266228346456693
 30
0.0
 10
0.1430472440944882
 20
1.26992125984252
 30
0.0
 10
0.1351850393700788
 20
1.277283464566929
 30
0.0
 10
0.1351850393700788
 20
1.277283464566929
 30
0.0
 10
0.1289370078740157
 20
1.283200787401575
 30
0.0
 10
0.1258267716535433
 20
1.289893700787402
 30
0.0
 10
0.1258267716535433
 20
1.297393700787402
 30
0.0
 10
0.1258267716535433
 20
1.297393700787402
 30
0.0
 10
0.1258267716535433
 20
1.30342125984252
 30
0.0
 10
0.1279370078740157
 20
1.308811023622047
 30
0.0
 10
0.1321574803149606
 20
1.313590551181102
 30
0.0
 10
0.1321574803149606
 20
1.313590551181102
 30
0.0
 10
0.1372716535433071
 20
1.319283464566929
 30
0.0
 10
0.1445472440944882
 20
1.323728346456693
 30
0.0
 10
0.153992125984252
 20
1.32692125984252
 30
0.0
 10
0.153992125984252
 20
1.32692125984252
 30
0.0
 10
0.1466023622047244
 20
1.330393700787402
 30
0.0
 10
0.1412992125984252
 20
1.33392125984252
 30
0.0
 10
0.1380196850393701
 20
1.337507874015748
 30
0.0
 10
0.1380196850393701
 20
1.337507874015748
 30
0.0
 10
0.1338543307086614
 20
1.342228346456693
 30
0.0
 10
0.1317716535433071
 20
1.347893700787402
 30
0.0
 10
0.1317716535433071
 20
1.354503937007874
 30
0.0
 10
0.1317716535433071
 20
1.354503937007874
 30
0.0
 10
0.1317716535433071
 20
1.362700787401575
 30
0.0
 10
0.1348543307086614
 20
1.369338582677165
 30
0.0
 10
0.1410472440944882
 20
1.374366141732283
 30
0.0
 10
0.1410472440944882
 20
1.374366141732283
 30
0.0
 10
0.1486299212598425
 20
1.380562992125984
 30
0.0
 10
0.1581299212598425
 20
1.383645669291339
 30
0.0
 10
0.1695196850393701
 20
1.383645669291339
 30
0.0
 10
0.1695196850393701
 20
1.383645669291339
 30
0.0
 10
0.1799370078740158
 20
1.383645669291339
 30
0.0
 10
0.1883543307086614
 20
1.380976377952756
 30
0.0
 10
0.1947992125984252
 20
1.375645669291339
 30
0.0
 10
0.1947992125984252
 20
1.375645669291339
 30
0.0
 10
0.2012125984251969
 20
1.370283464566929
 30
0.0
 10
0.2044370078740158
 20
1.364173228346457
 30
0.0
 10
0.2044370078740158
 20
1.357283464566929
 30
0.0
 10
0.2044370078740158
 20
1.357283464566929
 30
0.0
 10
0.2044370078740158
 20
1.353866141732284
 30
0.0
 10
0.2036299212598425
 20
1.350590551181103
 30
0.0
 10
0.2020472440944882
 20
1.347476377952756
 30
0.0
 10
0.2020472440944882
 20
1.347476377952756
 30
0.0
 10
0.2004370078740158
 20
1.344366141732283
 30
0.0
 10
0.197992125984252
 20
1.341448818897638
 30
0.0
 10
0.1946574803149606
 20
1.338783464566929
 30
0.0
 10
0.1946574803149606
 20
1.338783464566929
 30
0.0
 10
0.1913543307086614
 20
1.336090551181102
 30
0.0
 10
0.1867677165354331
 20
1.333562992125984
 30
0.0
 10
0.1809094488188976
 20
1.331173228346457
 30
0.0
  0
SPLINE
  5
72
330
1F
100
AcDbEntity
  8
LAYER_1
 62
   250
100
AcDbSpline
210
0.0
220
0.0
230
1.0
 70
    11
 71
     3
 72
    48
 73
    44
 74
     0
 42
0.0000000001
 43
0.0000000001
 40
0.0
 40
0.0
 40
0.0
 40
0.0
 40
0.0909090909090909
 40
0.0909090909090909
 40
0.0909090909090909
 40
0.0909090909090909
 40
0.1818181818181818
 40
0.1818181818181818
 40
0.1818181818181818
 40
0.1818181818181818
 40
0.2727272727272727
 40
0.2727272727272727
 40
0.2727272727272727
 40
0.2727272727272727
 40
0.3636363636363637
 40
0.3636363636363637
 40
0.3636363636363637
 40
0.3636363636363637
 40
0.4545454545454546
 40
0.4545454545454546
 40
0.4545454545454546
 40
0.4545454545454546
 40
0.5454545454545455
 40
0.5454545454545455
 40
0.5454545454545455
 40
0.5454545454545455
 40
0.6363636363636365
 40
0.6363636363636365
 40
0.6363636363636365
 40
0.6363636363636365
 40
0.7272727272727274
 40
0.7272727272727274
 40
0.7272727272727274
 40
0.7272727272727274
 40
0.8181818181818183
 40
0.8181818181818183
 40
0.8181818181818183
 40
0.8181818181818183
 40
0.9090909090909093
 40
0.9090909090909093
 40
0.9090909090909093
 40
0.9090909090909093
 40
1.0
 40
1.0
 40
1.0
 40
1.0
 10
0.1735196850393701
 20
1.334173228346457
 30
0.0
 10
0.1796850393700787
 20
1.338838582677165
 30
0.0
 10
0.1837125984251969
 20
1.342090551181102
 30
0.0
 10
0.1855472440944882
 20
1.343948818897638
 30
0.0
 10
0.1855472440944882
 20
1.343948818897638
 30
0.0
 10
0.1874094488188977
 20
1.345783464566929
 30
0.0
 10
0.1888267716535433
 20
1.347893700787402
 30
0.0
 10
0.1898267716535433
 20
1.350255905511811
 30
0.0
 10
0.1898267716535433
 20
1.350255905511811
 30
0.0
 10
0.1908267716535433
 20
1.352618110236221
 30
0.0
 10
0.1913267716535433
 20
1.354893700787402
 30
0.0
 10
0.1913267716535433
 20
1.35711811023622
 30
0.0
 10
0.1913267716535433
 20
1.35711811023622
 30
0.0
 10
0.1913267716535433
 20
1.360311023622047
 30
0.0
 10
0.1903818897637795
 20
1.363366141732284
 30
0.0
 10
0.188492125984252
 20
1.366283464566929
 30
0.0
 10
0.188492125984252
 20
1.366283464566929
 30
0.0
 10
0.1865748031496063
 20
1.369173228346457
 30
0.0
 10
0.1837992125984252
 20
1.371535433070866
 30
0.0
 10
0.1801299212598425
 20
1.373311023622047
 30
0.0
 10
0.1801299212598425
 20
1.373311023622047
 30
0.0
 10
0.176492125984252
 20
1.37511811023622
 30
0.0
 10
0.1723818897637795
 20
1.376003937007874
 30
0.0
 10
0.1678267716535433
 20
1.376003937007874
 30
0.0
 10
0.1678267716535433
 20
1.376003937007874
 30
0.0
 10
0.1610748031496063
 20
1.376003937007874
 30
0.0
 10
0.155492125984252
 20
1.374145669291339
 30
0.0
 10
0.1510472440944882
 20
1.37042125984252
 30
0.0
 10
0.1510472440944882
 20
1.37042125984252
 30
0.0
 10
0.1466023622047244
 20
1.366700787401575
 30
0.0
 10
0.1443818897637795
 20
1.36242125984252
 30
0.0
 10
0.1443818897637795
 20
1.357535433070866
 30
0.0
 10
0.1443818897637795
 20
1.357535433070866
 30
0.0
 10
0.1443818897637795
 20
1.353618110236221
 30
0.0
 10
0.1457716535433071
 20
1.350118110236221
 30
0.0
 10
0.1485196850393701
 20
1.347035433070866
 30
0.0
 10
0.1485196850393701
 20
1.347035433070866
 30
0.0
 10
0.1512992125984252
 20
1.343948818897638
 30
0.0
 10
0.1564370078740158
 20
1.340893700787402
 30
0.0
 10
0.163992125984252
 20
1.33792125984252
 30
0.0
 10
0.163992125984252
 20
1.33792125984252
 30
0.0
 10
0.163992125984252
 20
1.33792125984252
 30
0.0
 10
0.1735196850393701
 20
1.334173228346457
 30
0.0
 10
0.1735196850393701
 20
1.334173228346457
 30
0.0
  0
SPLINE
  5
73
330
1F
100
AcDbEntity
  8
LAYER_1
 62
   250
100
AcDbSpline
210
0.0
220
0.0
230
1.0
 70
    11
 71
     3
 72
    40
 73
    36
 74
     0
 42
0.0000000001
 43
0.0000000001
 40
0.0
 40
0.0
 40
0.0
 40
0.0
 40
0.1111111111111111
 40
0.1111111111111111
 40
0.1111111111111111
 40
0.1111111111111111
 40
0.2222222222222222
 40
0.2222222222222222
 40
0.2222222222222222
 40
0.2222222222222222
 40
0.3333333333333333
 40
0.3333333333333333
 40
0.3333333333333333
 40
0.3333333333333333
 40
0.4444444444444444
 40
0.4444444444444444
 40
0.4444444444444444
 40
0.4444444444444444
 40
0.5555555555555556
 40
0.5555555555555556
 40
0.5555555555555556
 40
0.5555555555555556
 40
0.6666666666666667
 40
0.6666666666666667
 40
0.6666666666666667
 40
0.6666666666666667
 40
0.7777777777777779
 40
0.7777777777777779
 40
0.7777777777777779
 40
0.7777777777777779
 40
0.8888888888888891
 40
0.8888888888888891
 40
0.8888888888888891
 40
0.8888888888888891
 40
1.0
 40
1.0
 40
1.0
 40
1.0
 10
0.1620472440944882
 20
1.323755905511811
 30
0.0
 10
0.1543818897637795
 20
1.320393700787402
 30
0.0
 10
0.1483267716535433
 20
1.316035433070866
 30
0.0
 10
0.1438818897637795
 20
1.310645669291339
 30
0.0
 10
0.1438818897637795
 20
1.310645669291339
 30
0.0
 10
0.1404094488188976
 20
1.30642125984252
 30
0.0
 10
0.1386850393700788
 20
1.302035433070866
 30
0.0
 10
0.1386850393700788
 20
1.29748031496063
 30
0.0
 10
0.1386850393700788
 20
1.29748031496063
 30
0.0
 10
0.1386850393700788
 20
1.291283464566929
 30
0.0
 10
0.1414094488188976
 20
1.285783464566929
 30
0.0
 10
0.1469094488188976
 20
1.28098031496063
 30
0.0
 10
0.1469094488188976
 20
1.28098031496063
 30
0.0
 10
0.1523818897637795
 20
1.276200787401575
 30
0.0
 10
0.1594645669291339
 20
1.273783464566929
 30
0.0
 10
0.1681299212598425
 20
1.273783464566929
 30
0.0
 10
0.1681299212598425
 20
1.273783464566929
 30
0.0
 10
0.176992125984252
 20
1.273783464566929
 30
0.0
 10
0.1843543307086614
 20
1.276535433070866
 30
0.0
 10
0.1902677165354331
 20
1.282007874015748
 30
0.0
 10
0.1902677165354331
 20
1.282007874015748
 30
0.0
 10
0.1951023622047244
 20
1.286452755905512
 30
0.0
 10
0.1975196850393701
 20
1.291228346456693
 30
0.0
 10
0.1975196850393701
 20
1.296338582677165
 30
0.0
 10
0.1975196850393701
 20
1.296338582677165
 30
0.0
 10
0.1975196850393701
 20
1.300338582677165
 30
0.0
 10
0.1959370078740158
 20
1.304173228346457
 30
0.0
 10
0.1927677165354331
 20
1.307838582677166
 30
0.0
 10
0.1927677165354331
 20
1.307838582677166
 30
0.0
 10
0.1895748031496063
 20
1.311507874015748
 30
0.0
 10
0.1836850393700787
 20
1.315062992125984
 30
0.0
 10
0.1750472440944882
 20
1.318535433070866
 30
0.0
 10
0.1750472440944882
 20
1.318535433070866
 30
0.0
 10
0.1750472440944882
 20
1.318535433070866
 30
0.0
 10
0.1620472440944882
 20
1.323755905511811
 30
0.0
 10
0.1620472440944882
 20
1.323755905511811
 30
0.0
  0
SPLINE
  5
74
330
1F
100
AcDbEntity
  8
LAYER_1
 62
   250
100
AcDbSpline
210
0.0
220
0.0
230
1.0
 70
    11
 71
     3
 72
    84
 73
    80
 74
     0
 42
0.0000000001
 43
0.0000000001
 40
0.0
 40
0.0
 40
0.0
 40
0.0
 40
0.05
 40
0.05
 40
0.05
 40
0.05
 40
0.1
 40
0.1
 40
0.1
 40
0.1
 40
0.15
 40
0.15
 40
0.15
 40
0.15
 40
0.2
 40
0.2
 40
0.2
 40
0.2
 40
0.25
 40
0.25
 40
0.25
 40
0.25
 40
0.3
 40
0.3
 40
0.3
 40
0.3
 40
0.35
 40
0.35
 40
0.35
 40
0.35
 40
0.4
 40
0.4
 40
0.4
 40
0.4
 40
0.45
 40
0.45
 40
0.45
 40
0.45
 40
0.4999999999999999
 40
0.4999999999999999
 40
0.4999999999999999
 40
0.4999999999999999
 40
0.5499999999999999
 40
0.5499999999999999
 40
0.5499999999999999
 40
0.5499999999999999
 40
0.6
 40
0.6
 40
0.6
 40
0.6
 40
0.65
 40
0.65
 40
0.65
 40
0.65
 40
0.7000000000000001
 40
0.7000000000000001
 40
0.7000000000000001
 40
0.7000000000000001
 40
0.7500000000000001
 40
0.7500000000000001
 40
0.7500000000000001
 40
0.7500000000000001
 40
0.8000000000000002
 40
0.8000000000000002
 40
0.8000000000000002
 40
0.8000000000000002
 40
0.8500000000000002
 40
0.8500000000000002
 40
0.8500000000000002
 40
0.8500000000000002
 40
0.9000000000000002
 40
0.9000000000000002
 40
0.9000000000000002
 40
0.9000000000000002
 40
0.9500000000000003
 40
0.9500000000000003
 40
0.9500000000000003
 40
0.9500000000000003
 40
1.0
 40
1.0
 40
1.0
 40
1.0
 10
0.2389370078740158
 20
1.266228346456693
 30
0.0
 10
0.2389370078740158
 20
1.266228346456693
 30
0.0
 10
0.2389370078740158
 20
1.273783464566929
 30
0.0
 10
0.2389370078740158
 20
1.273783464566929
 30
0.0
 10
0.2389370078740158
 20
1.273783464566929
 30
0.0
 10
0.2524094488188977
 20
1.273952755905512
 30
0.0
 10
0.2632716535433071
 20
1.275893700787402
 30
0.0
 10
0.2715472440944882
 20
1.279618110236221
 30
0.0
 10
0.2715472440944882
 20
1.279618110236221
 30
0.0
 10
0.2798267716535433
 20
1.283311023622047
 30
0.0
 10
0.2858818897637795
 20
1.28892125984252
 30
0.0
 10
0.2897716535433071
 20
1.29642125984252
 30
0.0
 10
0.2897716535433071
 20
1.29642125984252
 30
0.0
 10
0.2936614173228347
 20
1.303893700787402
 30
0.0
 10
0.2958267716535433
 20
1.313062992125984
 30
0.0
 10
0.2963267716535433
 20
1.32392125984252
 30
0.0
 10
0.2963267716535433
 20
1.32392125984252
 30
0.0
 10
0.2935472440944882
 20
1.319700787401575
 30
0.0
 10
0.2907165354330709
 20
1.316393700787402
 30
0.0
 10
0.2878267716535433
 20
1.314062992125984
 30
0.0
 10
0.2878267716535433
 20
1.314062992125984
 30
0.0
 10
0.2849094488188976
 20
1.311728346456693
 30
0.0
 10
0.2815196850393701
 20
1.30992125984252
 30
0.0
 10
0.2776614173228347
 20
1.30861811023622
 30
0.0
 10
0.2776614173228347
 20
1.30861811023622
 30
0.0
 10
0.2737716535433071
 20
1.307311023622047
 30
0.0
 10
0.2695472440944882
 20
1.306673228346457
 30
0.0
 10
0.264992125984252
 20
1.306673228346457
 30
0.0
 10
0.264992125984252
 20
1.306673228346457
 30
0.0
 10
0.2576023622047244
 20
1.306673228346457
 30
0.0
 10
0.2510472440944882
 20
1.308283464566929
 30
0.0
 10
0.2452716535433071
 20
1.311562992125984
 30
0.0
 10
0.2452716535433071
 20
1.311562992125984
 30
0.0
 10
0.239492125984252
 20
1.314811023622047
 30
0.0
 10
0.234992125984252
 20
1.319200787401575
 30
0.0
 10
0.2317992125984252
 20
1.324728346456693
 30
0.0
 10
0.2317992125984252
 20
1.324728346456693
 30
0.0
 10
0.2285748031496063
 20
1.330255905511811
 30
0.0
 10
0.226992125984252
 20
1.336783464566929
 30
0.0
 10
0.226992125984252
 20
1.344255905511811
 30
0.0
 10
0.226992125984252
 20
1.344255905511811
 30
0.0
 10
0.226992125984252
 20
1.356200787401575
 30
0.0
 10
0.2306062992125984
 20
1.365590551181102
 30
0.0
 10
0.2377992125984252
 20
1.37242125984252
 30
0.0
 10
0.2377992125984252
 20
1.37242125984252
 30
0.0
 10
0.2457992125984252
 20
1.379893700787402
 30
0.0
 10
0.2561614173228347
 20
1.383645669291339
 30
0.0
 10
0.2689094488188977
 20
1.383645669291339
 30
0.0
 10
0.2689094488188977
 20
1.383645669291339
 30
0.0
 10
0.2780748031496063
 20
1.383645669291339
 30
0.0
 10
0.2857992125984252
 20
1.381755905511811
 30
0.0
 10
0.2921023622047244
 20
1.377948818897638
 30
0.0
 10
0.2921023622047244
 20
1.377948818897638
 30
0.0
 10
0.2983818897637796
 20
1.374145669291339
 30
0.0
 10
0.3033818897637796
 20
1.368338582677166
 30
0.0
 10
0.3070748031496063
 20
1.360535433070866
 30
0.0
 10
0.3070748031496063
 20
1.360535433070866
 30
0.0
 10
0.310744094488189
 20
1.352728346456693
 30
0.0
 10
0.3126023622047244
 20
1.343118110236221
 30
0.0
 10
0.3126023622047244
 20
1.331728346456693
 30
0.0
 10
0.3126023622047244
 20
1.331728346456693
 30
0.0
 10
0.3126023622047244
 20
1.320338582677165
 30
0.0
 10
0.3106889763779528
 20
1.310173228346457
 30
0.0
 10
0.3068267716535433
 20
1.301200787401575
 30
0.0
 10
0.3068267716535433
 20
1.301200787401575
 30
0.0
 10
0.3029645669291339
 20
1.292255905511811
 30
0.0
 10
0.2975748031496063
 20
1.285090551181102
 30
0.0
 10
0.2906614173228347
 20
1.279700787401575
 30
0.0
 10
0.2906614173228347
 20
1.279700787401575
 30
0.0
 10
0.283744094488189
 20
1.274283464566929
 30
0.0
 10
0.2761299212598425
 20
1.270700787401575
 30
0.0
 10
0.2678543307086614
 20
1.268893700787402
 30
0.0
 10
0.2678543307086614
 20
1.268893700787402
 30
0.0
 10
0.2595472440944882
 20
1.267118110236221
 30
0.0
 10
0.2520196850393701
 20
1.266228346456693
 30
0.0
 10
0.2452992125984252
 20
1.266228346456693
 30
0.0
 10
0.2452992125984252
 20
1.266228346456693
 30
0.0
 10
0.2452992125984252
 20
1.266228346456693
 30
0.0
 10
0.2389370078740158
 20
1.266228346456693
 30
0.0
 10
0.2389370078740158
 20
1.266228346456693
 30
0.0
  0
SPLINE
  5
75
330
1F
100
AcDbEntity
  8
LAYER_1
 62
   250
100
AcDbSpline
210
0.0
220
0.0
230
1.0
 70
    11
 71
     3
 72
    40
 73
    36
 74
     0
 42
0.0000000001
 43
0.0000000001
 40
0.0
 40
0.0
 40
0.0
 40
0.0
 40
0.1111111111111111
 40
0.1111111111111111
 40
0.1111111111111111
 40
0.1111111111111111
 40
0.2222222222222222
 40
0.2222222222222222
 40
0.2222222222222222
 40
0.2222222222222222
 40
0.3333333333333333
 40
0.3333333333333333
 40
0.3333333333333333
 40
0.3333333333333333
 40
0.4444444444444444
 40
0.4444444444444444
 40
0.4444444444444444
 40
0.4444444444444444
 40
0.5555555555555556
 40
0.5555555555555556
 40
0.5555555555555556
 40
0.5555555555555556
 40
0.6666666666666667
 40
0.6666666666666667
 40
0.6666666666666667
 40
0.6666666666666667
 40
0.7777777777777779
 40
0.7777777777777779
 40
0.7777777777777779
 40
0.7777777777777779
 40
0.8888888888888891
 40
0.8888888888888891
 40
0.8888888888888891
 40
0.8888888888888891
 40
1.0
 40
1.0
 40
1.0
 40
1.0
 10
0.268744094488189
 20
1.315366141732284
 30
0.0
 10
0.276492125984252
 20
1.315366141732284
 30
0.0
 10
0.2828818897637795
 20
1.318311023622047
 30
0.0
 10
0.2879094488188976
 20
1.324200787401575
 30
0.0
 10
0.2879094488188976
 20
1.324200787401575
 30
0.0
 10
0.2929094488188976
 20
1.330090551181102
 30
0.0
 10
0.2954370078740158
 20
1.337173228346457
 30
0.0
 10
0.2954370078740158
 20
1.345476377952756
 30
0.0
 10
0.2954370078740158
 20
1.345476377952756
 30
0.0
 10
0.2954370078740158
 20
1.351338582677165
 30
0.0
 10
0.2942165354330709
 20
1.356755905511811
 30
0.0
 10
0.2917716535433071
 20
1.361728346456693
 30
0.0
 10
0.2917716535433071
 20
1.361728346456693
 30
0.0
 10
0.2893267716535433
 20
1.366673228346457
 30
0.0
 10
0.2861889763779528
 20
1.370366141732283
 30
0.0
 10
0.2823543307086615
 20
1.372783464566929
 30
0.0
 10
0.2823543307086615
 20
1.372783464566929
 30
0.0
 10
0.2785472440944882
 20
1.375200787401575
 30
0.0
 10
0.2741889763779528
 20
1.376393700787402
 30
0.0
 10
0.2692992125984252
 20
1.376393700787402
 30
0.0
 10
0.2692992125984252
 20
1.376393700787402
 30
0.0
 10
0.2618818897637795
 20
1.376393700787402
 30
0.0
 10
0.2556614173228347
 20
1.373562992125984
 30
0.0
 10
0.2506614173228347
 20
1.367893700787402
 30
0.0
 10
0.2506614173228347
 20
1.367893700787402
 30
0.0
 10
0.2456889763779528
 20
1.362228346456693
 30
0.0
 10
0.2431889763779528
 20
1.354618110236221
 30
0.0
 10
0.2431889763779528
 20
1.345090551181102
 30
0.0
 10
0.2431889763779528
 20
1.345090551181102
 30
0.0
 10
0.2431889763779528
 20
1.335948818897638
 30
0.0
 10
0.2456062992125984
 20
1.328728346456693
 30
0.0
 10
0.2504645669291339
 20
1.323393700787402
 30
0.0
 10
0.2504645669291339
 20
1.323393700787402
 30
0.0
 10
0.2553267716535433
 20
1.318035433070866
 30
0.0
 10
0.2614094488188977
 20
1.315366141732284
 30
0.0
 10
0.268744094488189
 20
1.315366141732284
 30
0.0
  0
SPLINE
  5
76
330
1F
100
AcDbEntity
  8
LAYER_1
 62
   250
100
AcDbSpline
210
0.0
220
0.0
230
1.0
 70
    11
 71
     3
 72
    72
 73
    68
 74
     0
 42
0.0000000001
 43
0.0000000001
 40
0.0
 40
0.0
 40
0.0
 40
0.0
 40
0.0588235294117647
 40
0.0588235294117647
 40
0.0588235294117647
 40
0.0588235294117647
 40
0.1176470588235294
 40
0.1176470588235294
 40
0.1176470588235294
 40
0.1176470588235294
 40
0.1764705882352941
 40
0.1764705882352941
 40
0.1764705882352941
 40
0.1764705882352941
 40
0.2352941176470588
 40
0.2352941176470588
 40
0.2352941176470588
 40
0.2352941176470588
 40
0.2941176470588235
 40
0.2941176470588235
 40
0.2941176470588235
 40
0.2941176470588235
 40
0.3529411764705883
 40
0.3529411764705883
 40
0.3529411764705883
 40
0.3529411764705883
 40
0.411764705882353
 40
0.411764705882353
 40
0.411764705882353
 40
0.411764705882353
 40
0.4705882352941177
 40
0.4705882352941177
 40
0.4705882352941177
 40
0.4705882352941177
 40
0.5294117647058824
 40
0.5294117647058824
 40
0.5294117647058824
 40
0.5294117647058824
 40
0.5882352941176471
 40
0.5882352941176471
 40
0.5882352941176471
 40
0.5882352941176471
 40
0.6470588235294118
 40
0.6470588235294118
 40
0.6470588235294118
 40
0.6470588235294118
 40
0.7058823529411765
 40
0.7058823529411765
 40
0.7058823529411765
 40
0.7058823529411765
 40
0.7647058823529412
 40
0.7647058823529412
 40
0.7647058823529412
 40
0.7647058823529412
 40
0.823529411764706
 40
0.823529411764706
 40
0.823529411764706
 40
0.823529411764706
 40
0.8823529411764707
 40
0.8823529411764707
 40
0.8823529411764707
 40
0.8823529411764707
 40
0.9411764705882354
 40
0.9411764705882354
 40
0.9411764705882354
 40
0.9411764705882354
 40
1.0
 40
1.0
 40
1.0
 40
1.0
 10
-0.2824803149606299
 20
1.194200787401575
 30
0.0
 10
-0.2824803149606299
 20
1.194200787401575
 30
0.0
 10
-0.2763976377952756
 20
1.194200787401575
 30
0.0
 10
-0.2763976377952756
 20
1.194200787401575
 30
0.0
 10
-0.2763976377952756
 20
1.194200787401575
 30
0.0
 10
-0.2763976377952756
 20
1.194200787401575
 30
0.0
 10
-0.2763976377952756
 20
1.099952755905512
 30
0.0
 10
-0.2763976377952756
 20
1.099952755905512
 30
0.0
 10
-0.2763976377952756
 20
1.099952755905512
 30
0.0
 10
-0.2763976377952756
 20
1.095507874015748
 30
0.0
 10
-0.2760905511811024
 20
1.092645669291339
 30
0.0
 10
-0.2755354330708661
 20
1.091366141732284
 30
0.0
 10
-0.2755354330708661
 20
1.091366141732284
 30
0.0
 10
-0.2749527559055118
 20
1.090090551181102
 30
0.0
 10
-0.2740354330708661
 20
1.089145669291339
 30
0.0
 10
-0.272732283464567
 20
1.08848031496063
 30
0.0
 10
-0.272732283464567
 20
1.08848031496063
 30
0.0
 10
-0.2714251968503937
 20
1.087838582677166
 30
0.0
 10
-0.2688425196850394
 20
1.087507874015748
 30
0.0
 10
-0.2649803149606299
 20
1.087507874015748
 30
0.0
 10
-0.2649803149606299
 20
1.087507874015748
 30
0.0
 10
-0.2649803149606299
 20
1.087507874015748
 30
0.0
 10
-0.257007874015748
 20
1.087507874015748
 30
0.0
 10
-0.257007874015748
 20
1.087507874015748
 30
0.0
 10
-0.257007874015748
 20
1.087507874015748
 30
0.0
 10
-0.257007874015748
 20
1.087507874015748
 30
0.0
 10
-0.257007874015748
 20
1.080673228346457
 30
0.0
 10
-0.257007874015748
 20
1.080673228346457
 30
0.0
 10
-0.257007874015748
 20
1.080673228346457
 30
0.0
 10
-0.257007874015748
 20
1.080673228346457
 30
0.0
 10
-0.3106456692913386
 20
1.080673228346457
 30
0.0
 10
-0.3106456692913386
 20
1.080673228346457
 30
0.0
 10
-0.3106456692913386
 20
1.080673228346457
 30
0.0
 10
-0.3106456692913386
 20
1.080673228346457
 30
0.0
 10
-0.3106456692913386
 20
1.087507874015748
 30
0.0
 10
-0.3106456692913386
 20
1.087507874015748
 30
0.0
 10
-0.3106456692913386
 20
1.087507874015748
 30
0.0
 10
-0.3106456692913386
 20
1.087507874015748
 30
0.0
 10
-0.3017874015748032
 20
1.087507874015748
 30
0.0
 10
-0.3017874015748032
 20
1.087507874015748
 30
0.0
 10
-0.3017874015748032
 20
1.087507874015748
 30
0.0
 10
-0.2979251968503937
 20
1.087507874015748
 30
0.0
 10
-0.2953700787401575
 20
1.087838582677166
 30
0.0
 10
-0.2940905511811024
 20
1.088535433070866
 30
0.0
 10
-0.2940905511811024
 20
1.088535433070866
 30
0.0
 10
-0.2928149606299213
 20
1.089200787401575
 30
0.0
 10
-0.2918149606299213
 20
1.090283464566929
 30
0.0
 10
-0.2911181102362205
 20
1.091783464566929
 30
0.0
 10
-0.2911181102362205
 20
1.091783464566929
 30
0.0
 10
-0.2904251968503937
 20
1.093283464566929
 30
0.0
 10
-0.2900629921259842
 20
1.096007874015748
 30
0.0
 10
-0.2900629921259842
 20
1.099952755905512
 30
0.0
 10
-0.2900629921259842
 20
1.099952755905512
 30
0.0
 10
-0.2900629921259842
 20
1.099952755905512
 30
0.0
 10
-0.2900629921259842
 20
1.17742125984252
 30
0.0
 10
-0.2900629921259842
 20
1.17742125984252
 30
0.0
 10
-0.2900629921259842
 20
1.17742125984252
 30
0.0
 10
-0.2900629921259842
 20
1.17742125984252
 30
0.0
 10
-0.3106456692913386
 20
1.17742125984252
 30
0.0
 10
-0.3106456692913386
 20
1.17742125984252
 30
0.0
 10
-0.3106456692913386
 20
1.17742125984252
 30
0.0
 10
-0.3106456692913386
 20
1.17742125984252
 30
0.0
 10
-0.3106456692913386
 20
1.18442125984252
 30
0.0
 10
-0.3106456692913386
 20
1.18442125984252
 30
0.0
 10
-0.3106456692913386
 20
1.18442125984252
 30
0.0
 10
-0.2994251968503937
 20
1.186003937007874
 30
0.0
 10
-0.2900354330708662
 20
1.189255905511811
 30
0.0
 10
-0.2824803149606299
 20
1.194200787401575
 30
0.0
  0
SPLINE
  5
77
330
1F
100
AcDbEntity
  8
LAYER_1
 62
   250
100
AcDbSpline
210
0.0
220
0.0
230
1.0
 70
    11
 71
     3
 72
    60
 73
    56
 74
     0
 42
0.0000000001
 43
0.0000000001
 40
0.0
 40
0.0
 40
0.0
 40
0.0
 40
0.0714285714285714
 40
0.0714285714285714
 40
0.0714285714285714
 40
0.0714285714285714
 40
0.1428571428571429
 40
0.1428571428571429
 40
0.1428571428571429
 40
0.1428571428571429
 40
0.2142857142857143
 40
0.2142857142857143
 40
0.2142857142857143
 40
0.2142857142857143
 40
0.2857142857142857
 40
0.2857142857142857
 40
0.2857142857142857
 40
0.2857142857142857
 40
0.3571428571428571
 40
0.3571428571428571
 40
0.3571428571428571
 40
0.3571428571428571
 40
0.4285714285714285
 40
0.4285714285714285
 40
0.4285714285714285
 40
0.4285714285714285
 40
0.4999999999999999
 40
0.4999999999999999
 40
0.4999999999999999
 40
0.4999999999999999
 40
0.5714285714285713
 40
0.5714285714285713
 40
0.5714285714285713
 40
0.5714285714285713
 40
0.6428571428571427
 40
0.6428571428571427
 40
0.6428571428571427
 40
0.6428571428571427
 40
0.7142857142857141
 40
0.7142857142857141
 40
0.7142857142857141
 40
0.7142857142857141
 40
0.7857142857142855
 40
0.7857142857142855
 40
0.7857142857142855
 40
0.7857142857142855
 40
0.8571428571428569
 40
0.8571428571428569
 40
0.8571428571428569
 40
0.8571428571428569
 40
0.9285714285714283
 40
0.9285714285714283
 40
0.9285714285714283
 40
0.9285714285714283
 40
1.0
 40
1.0
 40
1.0
 40
1.0
 10
-0.2250354330708662
 20
1.152118110236221
 30
0.0
 10
-0.2250354330708662
 20
1.152118110236221
 30
0.0
 10
-0.2294251968503937
 20
1.157507874015748
 30
0.0
 10
-0.2294251968503937
 20
1.157507874015748
 30
0.0
 10
-0.2294251968503937
 20
1.157507874015748
 30
0.0
 10
-0.2183110236220472
 20
1.166562992125984
 30
0.0
 10
-0.2127283464566929
 20
1.174118110236221
 30
0.0
 10
-0.2127283464566929
 20
1.180200787401575
 30
0.0
 10
-0.2127283464566929
 20
1.180200787401575
 30
0.0
 10
-0.2127283464566929
 20
1.180893700787402
 30
0.0
 10
-0.2127834645669292
 20
1.181783464566929
 30
0.0
 10
-0.2128976377952756
 20
1.182811023622047
 30
0.0
 10
-0.2128976377952756
 20
1.182811023622047
 30
0.0
 10
-0.2138110236220473
 20
1.18242125984252
 30
0.0
 10
-0.2147283464566929
 20
1.182118110236221
 30
0.0
 10
-0.2155905511811024
 20
1.18192125984252
 30
0.0
 10
-0.2155905511811024
 20
1.18192125984252
 30
0.0
 10
-0.2164527559055118
 20
1.181700787401575
 30
0.0
 10
-0.217255905511811
 20
1.181590551181103
 30
0.0
 10
-0.2180354330708662
 20
1.181590551181103
 30
0.0
 10
-0.2180354330708662
 20
1.181590551181103
 30
0.0
 10
-0.2206456692913386
 20
1.181590551181103
 30
0.0
 10
-0.2227283464566929
 20
1.18242125984252
 30
0.0
 10
-0.2242834645669291
 20
1.184118110236221
 30
0.0
 10
-0.2242834645669291
 20
1.184118110236221
 30
0.0
 10
-0.2258700787401575
 20
1.185783464566929
 30
0.0
 10
-0.2266456692913386
 20
1.18792125984252
 30
0.0
 10
-0.2266456692913386
 20
1.190535433070866
 30
0.0
 10
-0.2266456692913386
 20
1.190535433070866
 30
0.0
 10
-0.2266456692913386
 20
1.193090551181102
 30
0.0
 10
-0.2257007874015748
 20
1.195311023622047
 30
0.0
 10
-0.2238110236220472
 20
1.197200787401575
 30
0.0
 10
-0.2238110236220472
 20
1.197200787401575
 30
0.0
 10
-0.2218976377952756
 20
1.199118110236221
 30
0.0
 10
-0.2196181102362205
 20
1.200062992125984
 30
0.0
 10
-0.2169803149606299
 20
1.200062992125984
 30
0.0
 10
-0.2169803149606299
 20
1.200062992125984
 30
0.0
 10
-0.2132834645669292
 20
1.200062992125984
 30
0.0
 10
-0.2101181102362205
 20
1.198590551181102
 30
0.0
 10
-0.2074803149606299
 20
1.19561811023622
 30
0.0
 10
-0.2074803149606299
 20
1.19561811023622
 30
0.0
 10
-0.2048700787401575
 20
1.192673228346457
 30
0.0
 10
-0.2035354330708662
 20
1.188866141732283
 30
0.0
 10
-0.2035354330708662
 20
1.184200787401575
 30
0.0
 10
-0.2035354330708662
 20
1.184200787401575
 30
0.0
 10
-0.2035354330708662
 20
1.181145669291339
 30
0.0
 10
-0.2041732283464567
 20
1.177948818897638
 30
0.0
 10
-0.2054251968503937
 20
1.174618110236221
 30
0.0
 10
-0.2054251968503937
 20
1.174618110236221
 30
0.0
 10
-0.2066732283464567
 20
1.171283464566929
 30
0.0
 10
-0.2084803149606299
 20
1.168200787401575
 30
0.0
 10
-0.2108700787401575
 20
1.165338582677165
 30
0.0
 10
-0.2108700787401575
 20
1.165338582677165
 30
0.0
 10
-0.213255905511811
 20
1.162507874015748
 30
0.0
 10
-0.2179803149606299
 20
1.158090551181102
 30
0.0
 10
-0.2250354330708662
 20
1.152118110236221
 30
0.0
  0
SPLINE
  5
78
330
1F
100
AcDbEntity
  8
LAYER_1
 62
   250
100
AcDbSpline
210
0.0
220
0.0
230
1.0
 70
    11
 71
     3
 72
    60
 73
    56
 74
     0
 42
0.0000000001
 43
0.0000000001
 40
0.0
 40
0.0
 40
0.0
 40
0.0
 40
0.0714285714285714
 40
0.0714285714285714
 40
0.0714285714285714
 40
0.0714285714285714
 40
0.1428571428571429
 40
0.1428571428571429
 40
0.1428571428571429
 40
0.1428571428571429
 40
0.2142857142857143
 40
0.2142857142857143
 40
0.2142857142857143
 40
0.2142857142857143
 40
0.2857142857142857
 40
0.2857142857142857
 40
0.2857142857142857
 40
0.2857142857142857
 40
0.3571428571428571
 40
0.3571428571428571
 40
0.3571428571428571
 40
0.3571428571428571
 40
0.4285714285714285
 40
0.4285714285714285
 40
0.4285714285714285
 40
0.4285714285714285
 40
0.4999999999999999
 40
0.4999999999999999
 40
0.4999999999999999
 40
0.4999999999999999
 40
0.5714285714285713
 40
0.5714285714285713
 40
0.5714285714285713
 40
0.5714285714285713
 40
0.6428571428571427
 40
0.6428571428571427
 40
0.6428571428571427
 40
0.6428571428571427
 40
0.7142857142857141
 40
0.7142857142857141
 40
0.7142857142857141
 40
0.7142857142857141
 40
0.7857142857142855
 40
0.7857142857142855
 40
0.7857142857142855
 40
0.7857142857142855
 40
0.8571428571428569
 40
0.8571428571428569
 40
0.8571428571428569
 40
0.8571428571428569
 40
0.9285714285714283
 40
0.9285714285714283
 40
0.9285714285714283
 40
0.9285714285714283
 40
1.0
 40
1.0
 40
1.0
 40
1.0
 10
-0.1959803149606299
 20
1.152118110236221
 30
0.0
 10
-0.1959803149606299
 20
1.152118110236221
 30
0.0
 10
-0.2003700787401575
 20
1.157507874015748
 30
0.0
 10
-0.2003700787401575
 20
1.157507874015748
 30
0.0
 10
-0.2003700787401575
 20
1.157507874015748
 30
0.0
 10
-0.189255905511811
 20
1.166562992125984
 30
0.0
 10
-0.1836732283464567
 20
1.174118110236221
 30
0.0
 10
-0.1836732283464567
 20
1.180200787401575
 30
0.0
 10
-0.1836732283464567
 20
1.180200787401575
 30
0.0
 10
-0.1836732283464567
 20
1.180893700787402
 30
0.0
 10
-0.1837283464566929
 20
1.181783464566929
 30
0.0
 10
-0.1838425196850394
 20
1.182811023622047
 30
0.0
 10
-0.1838425196850394
 20
1.182811023622047
 30
0.0
 10
-0.184755905511811
 20
1.18242125984252
 30
0.0
 10
-0.1856732283464567
 20
1.182118110236221
 30
0.0
 10
-0.1865354330708662
 20
1.18192125984252
 30
0.0
 10
-0.1865354330708662
 20
1.18192125984252
 30
0.0
 10
-0.1873976377952756
 20
1.181700787401575
 30
0.0
 10
-0.1882283464566929
 20
1.181590551181103
 30
0.0
 10
-0.1890629921259843
 20
1.181590551181103
 30
0.0
 10
-0.1890629921259843
 20
1.181590551181103
 30
0.0
 10
-0.1916181102362205
 20
1.181590551181103
 30
0.0
 10
-0.1936732283464567
 20
1.18242125984252
 30
0.0
 10
-0.1952283464566929
 20
1.184118110236221
 30
0.0
 10
-0.1952283464566929
 20
1.184118110236221
 30
0.0
 10
-0.1968110236220473
 20
1.185783464566929
 30
0.0
 10
-0.1975905511811024
 20
1.18792125984252
 30
0.0
 10
-0.1975905511811024
 20
1.190535433070866
 30
0.0
 10
-0.1975905511811024
 20
1.190535433070866
 30
0.0
 10
-0.1975905511811024
 20
1.193090551181102
 30
0.0
 10
-0.1966456692913386
 20
1.195311023622047
 30
0.0
 10
-0.194755905511811
 20
1.197200787401575
 30
0.0
 10
-0.194755905511811
 20
1.197200787401575
 30
0.0
 10
-0.1928700787401575
 20
1.199118110236221
 30
0.0
 10
-0.1905629921259843
 20
1.200062992125984
 30
0.0
 10
-0.1879251968503937
 20
1.200062992125984
 30
0.0
 10
-0.1879251968503937
 20
1.200062992125984
 30
0.0
 10
-0.1842283464566929
 20
1.200062992125984
 30
0.0
 10
-0.1810629921259843
 20
1.198590551181102
 30
0.0
 10
-0.1784251968503937
 20
1.19561811023622
 30
0.0
 10
-0.1784251968503937
 20
1.19561811023622
 30
0.0
 10
-0.1758149606299213
 20
1.192673228346457
 30
0.0
 10
-0.1744803149606299
 20
1.188866141732283
 30
0.0
 10
-0.1744803149606299
 20
1.184200787401575
 30
0.0
 10
-0.1744803149606299
 20
1.184200787401575
 30
0.0
 10
-0.1744803149606299
 20
1.181145669291339
 30
0.0
 10
-0.1751181102362205
 20
1.177948818897638
 30
0.0
 10
-0.1763700787401575
 20
1.174618110236221
 30
0.0
 10
-0.1763700787401575
 20
1.174618110236221
 30
0.0
 10
-0.1776181102362205
 20
1.171283464566929
 30
0.0
 10
-0.1794251968503937
 20
1.168200787401575
 30
0.0
 10
-0.1818110236220473
 20
1.165338582677165
 30
0.0
 10
-0.1818110236220473
 20
1.165338582677165
 30
0.0
 10
-0.1842007874015748
 20
1.162507874015748
 30
0.0
 10
-0.1889251968503937
 20
1.158090551181102
 30
0.0
 10
-0.1959803149606299
 20
1.152118110236221
 30
0.0
  0
SPLINE
  5
79
330
1F
100
AcDbEntity
  8
LAYER_1
 62
   250
100
AcDbSpline
210
0.0
220
0.0
230
1.0
 70
    11
 71
     3
 72
   200
 73
   196
 74
     0
 42
0.0000000001
 43
0.0000000001
 40
0.0
 40
0.0
 40
0.0
 40
0.0
 40
0.0204081632653061
 40
0.0204081632653061
 40
0.0204081632653061
 40
0.0204081632653061
 40
0.0408163265306122
 40
0.0408163265306122
 40
0.0408163265306122
 40
0.0408163265306122
 40
0.0612244897959184
 40
0.0612244897959184
 40
0.0612244897959184
 40
0.0612244897959184
 40
0.0816326530612245
 40
0.0816326530612245
 40
0.0816326530612245
 40
0.0816326530612245
 40
0.1020408163265306
 40
0.1020408163265306
 40
0.1020408163265306
 40
0.1020408163265306
 40
0.1224489795918367
 40
0.1224489795918367
 40
0.1224489795918367
 40
0.1224489795918367
 40
0.1428571428571429
 40
0.1428571428571429
 40
0.1428571428571429
 40
0.1428571428571429
 40
0.163265306122449
 40
0.163265306122449
 40
0.163265306122449
 40
0.163265306122449
 40
0.1836734693877551
 40
0.1836734693877551
 40
0.1836734693877551
 40
0.1836734693877551
 40
0.2040816326530612
 40
0.2040816326530612
 40
0.2040816326530612
 40
0.2040816326530612
 40
0.2244897959183673
 40
0.2244897959183673
 40
0.2244897959183673
 40
0.2244897959183673
 40
0.2448979591836734
 40
0.2448979591836734
 40
0.2448979591836734
 40
0.2448979591836734
 40
0.2653061224489796
 40
0.2653061224489796
 40
0.2653061224489796
 40
0.2653061224489796
 40
0.2857142857142857
 40
0.2857142857142857
 40
0.2857142857142857
 40
0.2857142857142857
 40
0.3061224489795918
 40
0.3061224489795918
 40
0.3061224489795918
 40
0.3061224489795918
 40
0.326530612244898
 40
0.326530612244898
 40
0.326530612244898
 40
0.326530612244898
 40
0.3469387755102041
 40
0.3469387755102041
 40
0.3469387755102041
 40
0.3469387755102041
 40
0.3673469387755103
 40
0.3673469387755103
 40
0.3673469387755103
 40
0.3673469387755103
 40
0.3877551020408164
 40
0.3877551020408164
 40
0.3877551020408164
 40
0.3877551020408164
 40
0.4081632653061226
 40
0.4081632653061226
 40
0.4081632653061226
 40
0.4081632653061226
 40
0.4285714285714287
 40
0.4285714285714287
 40
0.4285714285714287
 40
0.4285714285714287
 40
0.4489795918367349
 40
0.4489795918367349
 40
0.4489795918367349
 40
0.4489795918367349
 40
0.469387755102041
 40
0.469387755102041
 40
0.469387755102041
 40
0.469387755102041
 40
0.4897959183673472
 40
0.4897959183673472
 40
0.4897959183673472
 40
0.4897959183673472
 40
0.5102040816326533
 40
0.5102040816326533
 40
0.5102040816326533
 40
0.5102040816326533
 40
0.5306122448979594
 40
0.5306122448979594
 40
0.5306122448979594
 40
0.5306122448979594
 40
0.5510204081632656
 40
0.5510204081632656
 40
0.5510204081632656
 40
0.5510204081632656
 40
0.5714285714285717
 40
0.5714285714285717
 40
0.5714285714285717
 40
0.5714285714285717
 40
0.5918367346938779
 40
0.5918367346938779
 40
0.5918367346938779
 40
0.5918367346938779
 40
0.612244897959184
 40
0.612244897959184
 40
0.612244897959184
 40
0.612244897959184
 40
0.6326530612244902
 40
0.6326530612244902
 40
0.6326530612244902
 40
0.6326530612244902
 40
0.6530612244897963
 40
0.6530612244897963
 40
0.6530612244897963
 40
0.6530612244897963
 40
0.6734693877551025
 40
0.6734693877551025
 40
0.6734693877551025
 40
0.6734693877551025
 40
0.6938775510204086
 40
0.6938775510204086
 40
0.6938775510204086
 40
0.6938775510204086
 40
0.7142857142857148
 40
0.7142857142857148
 40
0.7142857142857148
 40
0.7142857142857148
 40
0.7346938775510209
 40
0.7346938775510209
 40
0.7346938775510209
 40
0.7346938775510209
 40
0.755102040816327
 40
0.755102040816327
 40
0.755102040816327
 40
0.755102040816327
 40
0.7755102040816332
 40
0.7755102040816332
 40
0.7755102040816332
 40
0.7755102040816332
 40
0.7959183673469393
 40
0.7959183673469393
 40
0.7959183673469393
 40
0.7959183673469393
 40
0.8163265306122455
 40
0.8163265306122455
 40
0.8163265306122455
 40
0.8163265306122455
 40
0.8367346938775516
 40
0.8367346938775516
 40
0.8367346938775516
 40
0.8367346938775516
 40
0.8571428571428578
 40
0.8571428571428578
 40
0.8571428571428578
 40
0.8571428571428578
 40
0.8775510204081639
 40
0.8775510204081639
 40
0.8775510204081639
 40
0.8775510204081639
 40
0.8979591836734701
 40
0.8979591836734701
 40
0.8979591836734701
 40
0.8979591836734701
 40
0.9183673469387762
 40
0.9183673469387762
 40
0.9183673469387762
 40
0.9183673469387762
 40
0.9387755102040823
 40
0.9387755102040823
 40
0.9387755102040823
 40
0.9387755102040823
 40
0.9591836734693885
 40
0.9591836734693885
 40
0.9591836734693885
 40
0.9591836734693885
 40
0.9795918367346946
 40
0.9795918367346946
 40
0.9795918367346946
 40
0.9795918367346946
 40
1.0
 40
1.0
 40
1.0
 40
1.0
 10
-0.1098110236220473
 20
1.194200787401575
 30
0.0
 10
-0.1098110236220473
 20
1.194200787401575
 30
0.0
 10
-0.0664251968503937
 20
1.194200787401575
 30
0.0
 10
-0.0664251968503937
 20
1.194200787401575
 30
0.0
 10
-0.0664251968503937
 20
1.194200787401575
 30
0.0
 10
-0.0664251968503937
 20
1.194200787401575
 30
0.0
 10
-0.0664251968503937
 20
1.187283464566929
 30
0.0
 10
-0.0664251968503937
 20
1.187283464566929
 30
0.0
 10
-0.0664251968503937
 20
1.187283464566929
 30
0.0
 10
-0.0664251968503937
 20
1.187283464566929
 30
0.0
 10
-0.0698385826771654
 20
1.187283464566929
 30
0.0
 10
-0.0698385826771654
 20
1.187283464566929
 30
0.0
 10
-0.0698385826771654
 20
1.187283464566929
 30
0.0
 10
-0.0730905511811024
 20
1.187283464566929
 30
0.0
 10
-0.0751732283464567
 20
1.187062992125984
 30
0.0
 10
-0.0760354330708661
 20
1.186618110236221
 30
0.0
 10
-0.0760354330708661
 20
1.186618110236221
 30
0.0
 10
-0.0768976377952756
 20
1.186200787401575
 30
0.0
 10
-0.0773385826771654
 20
1.185476377952756
 30
0.0
 10
-0.0773385826771654
 20
1.184503937007874
 30
0.0
 10
-0.0773385826771654
 20
1.184503937007874
 30
0.0
 10
-0.0773385826771654
 20
1.183866141732284
 30
0.0
 10
-0.0771732283464567
 20
1.183200787401575
 30
0.0
 10
-0.0768385826771654
 20
1.182562992125984
 30
0.0
 10
-0.0768385826771654
 20
1.182562992125984
 30
0.0
 10
-0.076507874015748
 20
1.18192125984252
 30
0.0
 10
-0.0755354330708661
 20
1.180503937007874
 30
0.0
 10
-0.0739251968503937
 20
1.178338582677165
 30
0.0
 10
-0.0739251968503937
 20
1.178338582677165
 30
0.0
 10
-0.0739251968503937
 20
1.178338582677165
 30
0.0
 10
-0.0526732283464567
 20
1.149366141732284
 30
0.0
 10
-0.0526732283464567
 20
1.149366141732284
 30
0.0
 10
-0.0526732283464567
 20
1.149366141732284
 30
0.0
 10
-0.0526732283464567
 20
1.149366141732284
 30
0.0
 10
-0.0294803149606299
 20
1.178338582677165
 30
0.0
 10
-0.0294803149606299
 20
1.178338582677165
 30
0.0
 10
-0.0294803149606299
 20
1.178338582677165
 30
0.0
 10
-0.0273110236220472
 20
1.181035433070866
 30
0.0
 10
-0.0262283464566929
 20
1.183118110236221
 30
0.0
 10
-0.0262283464566929
 20
1.184503937007874
 30
0.0
 10
-0.0262283464566929
 20
1.184503937007874
 30
0.0
 10
-0.0262283464566929
 20
1.185393700787402
 30
0.0
 10
-0.0266456692913386
 20
1.186062992125984
 30
0.0
 10
-0.0274803149606299
 20
1.186562992125984
 30
0.0
 10
-0.0274803149606299
 20
1.186562992125984
 30
0.0
 10
-0.0283425196850394
 20
1.187035433070866
 30
0.0
 10
-0.0300905511811024
 20
1.187283464566929
 30
0.0
 10
-0.0328110236220472
 20
1.187283464566929
 30
0.0
 10
-0.0328110236220472
 20
1.187283464566929
 30
0.0
 10
-0.0328110236220472
 20
1.187283464566929
 30
0.0
 10
-0.0369803149606299
 20
1.187283464566929
 30
0.0
 10
-0.0369803149606299
 20
1.187283464566929
 30
0.0
 10
-0.0369803149606299
 20
1.187283464566929
 30
0.0
 10
-0.0369803149606299
 20
1.187283464566929
 30
0.0
 10
-0.0369803149606299
 20
1.194200787401575
 30
0.0
 10
-0.0369803149606299
 20
1.194200787401575
 30
0.0
 10
-0.0369803149606299
 20
1.194200787401575
 30
0.0
 10
-0.0369803149606299
 20
1.194200787401575
 30
0.0
 10
-0.0000905511811024
 20
1.194200787401575
 30
0.0
 10
-0.0000905511811024
 20
1.194200787401575
 30
0.0
 10
-0.0000905511811024
 20
1.194200787401575
 30
0.0
 10
-0.0000905511811024
 20
1.194200787401575
 30
0.0
 10
-0.0000905511811024
 20
1.187283464566929
 30
0.0
 10
-0.0000905511811024
 20
1.187283464566929
 30
0.0
 10
-0.0000905511811024
 20
1.187283464566929
 30
0.0
 10
-0.004507874015748
 20
1.187283464566929
 30
0.0
 10
-0.0076456692913386
 20
1.186811023622047
 30
0.0
 10
-0.0095905511811024
 20
1.185893700787402
 30
0.0
 10
-0.0095905511811024
 20
1.185893700787402
 30
0.0
 10
-0.011507874015748
 20
1.184976377952756
 30
0.0
 10
-0.0141732283464567
 20
1.182448818897638
 30
0.0
 10
-0.0175905511811024
 20
1.178338582677165
 30
0.0
 10
-0.0175905511811024
 20
1.178338582677165
 30
0.0
 10
-0.0175905511811024
 20
1.178338582677165
 30
0.0
 10
-0.0472283464566929
 20
1.142755905511811
 30
0.0
 10
-0.0472283464566929
 20
1.142755905511811
 30
0.0
 10
-0.0472283464566929
 20
1.142755905511811
 30
0.0
 10
-0.0472283464566929
 20
1.142755905511811
 30
0.0
 10
-0.0123110236220472
 20
1.096952755905512
 30
0.0
 10
-0.0123110236220472
 20
1.096952755905512
 30
0.0
 10
-0.0123110236220472
 20
1.096952755905512
 30
0.0
 10
-0.0100905511811024
 20
1.094007874015748
 30
0.0
 10
-0.0082007874015748
 20
1.091952755905512
 30
0.0
 10
-0.0067007874015748
 20
1.090728346456693
 30
0.0
 10
-0.0067007874015748
 20
1.090728346456693
 30
0.0
 10
-0.0051732283464567
 20
1.089507874015748
 30
0.0
 10
-0.0037007874015748
 20
1.088673228346457
 30
0.0
 10
-0.0023149606299213
 20
1.088200787401575
 30
0.0
 10
-0.0023149606299213
 20
1.088200787401575
 30
0.0
 10
-0.0008976377952756
 20
1.087728346456693
 30
0.0
 10
0.0014370078740157
 20
1.087507874015748
 30
0.0
 10
0.0046850393700787
 20
1.087507874015748
 30
0.0
 10
0.0046850393700787
 20
1.087507874015748
 30
0.0
 10
0.0046850393700787
 20
1.087507874015748
 30
0.0
 10
0.0046850393700787
 20
1.080673228346457
 30
0.0
 10
0.0046850393700787
 20
1.080673228346457
 30
0.0
 10
0.0046850393700787
 20
1.080673228346457
 30
0.0
 10
0.0046850393700787
 20
1.080673228346457
 30
0.0
 10
-0.0388385826771654
 20
1.080673228346457
 30
0.0
 10
-0.0388385826771654
 20
1.080673228346457
 30
0.0
 10
-0.0388385826771654
 20
1.080673228346457
 30
0.0
 10
-0.0388385826771654
 20
1.080673228346457
 30
0.0
 10
-0.0388385826771654
 20
1.087507874015748
 30
0.0
 10
-0.0388385826771654
 20
1.087507874015748
 30
0.0
 10
-0.0388385826771654
 20
1.087507874015748
 30
0.0
 10
-0.0388385826771654
 20
1.087507874015748
 30
0.0
 10
-0.0354251968503937
 20
1.087507874015748
 30
0.0
 10
-0.0354251968503937
 20
1.087507874015748
 30
0.0
 10
-0.0354251968503937
 20
1.087507874015748
 30
0.0
 10
-0.0320629921259843
 20
1.087507874015748
 30
0.0
 10
-0.0299251968503937
 20
1.087728346456693
 30
0.0
 10
-0.0290354330708661
 20
1.088200787401575
 30
0.0
 10
-0.0290354330708661
 20
1.088200787401575
 30
0.0
 10
-0.0281456692913386
 20
1.088673228346457
 30
0.0
 10
-0.0277007874015748
 20
1.089393700787402
 30
0.0
 10
-0.0277007874015748
 20
1.090452755905512
 30
0.0
 10
-0.0277007874015748
 20
1.090452755905512
 30
0.0
 10
-0.0277007874015748
 20
1.091035433070866
 30
0.0
 10
-0.0278425196850394
 20
1.091673228346457
 30
0.0
 10
-0.0281732283464567
 20
1.092311023622047
 30
0.0
 10
-0.0281732283464567
 20
1.092311023622047
 30
0.0
 10
-0.0282834645669291
 20
1.092590551181103
 30
0.0
 10
-0.0293700787401575
 20
1.094118110236221
 30
0.0
 10
-0.0314251968503937
 20
1.096952755905512
 30
0.0
 10
-0.0314251968503937
 20
1.096952755905512
 30
0.0
 10
-0.0314251968503937
 20
1.096952755905512
 30
0.0
 10
-0.0573976377952756
 20
1.131618110236221
 30
0.0
 10
-0.0573976377952756
 20
1.131618110236221
 30
0.0
 10
-0.0573976377952756
 20
1.131618110236221
 30
0.0
 10
-0.0573976377952756
 20
1.131618110236221
 30
0.0
 10
-0.0857834645669291
 20
1.095893700787402
 30
0.0
 10
-0.0857834645669291
 20
1.095893700787402
 30
0.0
 10
-0.0857834645669291
 20
1.095893700787402
 30
0.0
 10
-0.0875354330708661
 20
1.093783464566929
 30
0.0
 10
-0.088507874015748
 20
1.09248031496063
 30
0.0
 10
-0.0887283464566929
 20
1.09198031496063
 30
0.0
 10
-0.0887283464566929
 20
1.09198031496063
 30
0.0
 10
-0.0890629921259843
 20
1.091393700787402
 30
0.0
 10
-0.0892007874015748
 20
1.090811023622047
 30
0.0
 10
-0.0892007874015748
 20
1.090283464566929
 30
0.0
 10
-0.0892007874015748
 20
1.090283464566929
 30
0.0
 10
-0.0892007874015748
 20
1.089255905511811
 30
0.0
 10
-0.0885905511811024
 20
1.08848031496063
 30
0.0
 10
-0.0873385826771654
 20
1.088007874015748
 30
0.0
 10
-0.0873385826771654
 20
1.088007874015748
 30
0.0
 10
-0.0865354330708661
 20
1.087673228346457
 30
0.0
 10
-0.0845905511811024
 20
1.087507874015748
 30
0.0
 10
-0.0815629921259843
 20
1.087507874015748
 30
0.0
 10
-0.0815629921259843
 20
1.087507874015748
 30
0.0
 10
-0.0815629921259843
 20
1.087507874015748
 30
0.0
 10
-0.0781456692913386
 20
1.087507874015748
 30
0.0
 10
-0.0781456692913386
 20
1.087507874015748
 30
0.0
 10
-0.0781456692913386
 20
1.087507874015748
 30
0.0
 10
-0.0781456692913386
 20
1.087507874015748
 30
0.0
 10
-0.0781456692913386
 20
1.080673228346457
 30
0.0
 10
-0.0781456692913386
 20
1.080673228346457
 30
0.0
 10
-0.0781456692913386
 20
1.080673228346457
 30
0.0
 10
-0.0781456692913386
 20
1.080673228346457
 30
0.0
 10
-0.1149251968503937
 20
1.080673228346457
 30
0.0
 10
-0.1149251968503937
 20
1.080673228346457
 30
0.0
 10
-0.1149251968503937
 20
1.080673228346457
 30
0.0
 10
-0.1149251968503937
 20
1.080673228346457
 30
0.0
 10
-0.1149251968503937
 20
1.087507874015748
 30
0.0
 10
-0.1149251968503937
 20
1.087507874015748
 30
0.0
 10
-0.1149251968503937
 20
1.087507874015748
 30
0.0
 10
-0.1115629921259843
 20
1.087507874015748
 30
0.0
 10
-0.1091181102362205
 20
1.087728346456693
 30
0.0
 10
-0.1075629921259843
 20
1.088200787401575
 30
0.0
 10
-0.1075629921259843
 20
1.088200787401575
 30
0.0
 10
-0.106007874015748
 20
1.088673228346457
 30
0.0
 10
-0.1044527559055118
 20
1.08948031496063
 30
0.0
 10
-0.1028937007874016
 20
1.090673228346457
 30
0.0
 10
-0.1028937007874016
 20
1.090673228346457
 30
0.0
 10
-0.1013110236220473
 20
1.091866141732284
 30
0.0
 10
-0.0993110236220472
 20
1.09398031496063
 30
0.0
 10
-0.0968661417322835
 20
1.096952755905512
 30
0.0
 10
-0.0968661417322835
 20
1.096952755905512
 30
0.0
 10
-0.0968661417322835
 20
1.096952755905512
 30
0.0
 10
-0.0625905511811024
 20
1.138200787401575
 30
0.0
 10
-0.0625905511811024
 20
1.138200787401575
 30
0.0
 10
-0.0625905511811024
 20
1.138200787401575
 30
0.0
 10
-0.0625905511811024
 20
1.138200787401575
 30
0.0
 10
-0.0930354330708661
 20
1.178338582677165
 30
0.0
 10
-0.0930354330708661
 20
1.178338582677165
 30
0.0
 10
-0.0930354330708661
 20
1.178338582677165
 30
0.0
 10
-0.0960629921259843
 20
1.182338582677165
 30
0.0
 10
-0.0985629921259843
 20
1.184838582677166
 30
0.0
 10
-0.1004803149606299
 20
1.185811023622047
 30
0.0
 10
-0.1004803149606299
 20
1.185811023622047
 30
0.0
 10
-0.1024251968503937
 20
1.186783464566929
 30
0.0
 10
-0.105507874015748
 20
1.187283464566929
 30
0.0
 10
-0.1098110236220473
 20
1.187283464566929
 30
0.0
 10
-0.1098110236220473
 20
1.187283464566929
 30
0.0
 10
-0.1098110236220473
 20
1.187283464566929
 30
0.0
 10
-0.1098110236220473
 20
1.194200787401575
 30
0.0
 10
-0.1098110236220473
 20
1.194200787401575
 30
0.0
  0
SPLINE
  5
7A
330
1F
100
AcDbEntity
  8
LAYER_1
 62
   250
100
AcDbSpline
210
0.0
220
0.0
230
1.0
 70
    11
 71
     3
 72
    48
 73
    44
 74
     0
 42
0.0000000001
 43
0.0000000001
 40
0.0
 40
0.0
 40
0.0
 40
0.0
 40
0.0909090909090909
 40
0.0909090909090909
 40
0.0909090909090909
 40
0.0909090909090909
 40
0.1818181818181818
 40
0.1818181818181818
 40
0.1818181818181818
 40
0.1818181818181818
 40
0.2727272727272727
 40
0.2727272727272727
 40
0.2727272727272727
 40
0.2727272727272727
 40
0.3636363636363637
 40
0.3636363636363637
 40
0.3636363636363637
 40
0.3636363636363637
 40
0.4545454545454546
 40
0.4545454545454546
 40
0.4545454545454546
 40
0.4545454545454546
 40
0.5454545454545455
 40
0.5454545454545455
 40
0.5454545454545455
 40
0.5454545454545455
 40
0.6363636363636365
 40
0.6363636363636365
 40
0.6363636363636365
 40
0.6363636363636365
 40
0.7272727272727274
 40
0.7272727272727274
 40
0.7272727272727274
 40
0.7272727272727274
 40
0.8181818181818183
 40
0.8181818181818183
 40
0.8181818181818183
 40
0.8181818181818183
 40
0.9090909090909093
 40
0.9090909090909093
 40
0.9090909090909093
 40
0.9090909090909093
 40
1.0
 40
1.0
 40
1.0
 40
1.0
 10
0.1185511811023622
 20
1.194200787401575
 30
0.0
 10
0.1185511811023622
 20
1.194200787401575
 30
0.0
 10
0.1322992125984252
 20
1.194200787401575
 30
0.0
 10
0.1322992125984252
 20
1.194200787401575
 30
0.0
 10
0.1322992125984252
 20
1.194200787401575
 30
0.0
 10
0.1322992125984252
 20
1.194200787401575
 30
0.0
 10
0.1322992125984252
 20
1.128200787401575
 30
0.0
 10
0.1322992125984252
 20
1.128200787401575
 30
0.0
 10
0.1322992125984252
 20
1.128200787401575
 30
0.0
 10
0.1322992125984252
 20
1.128200787401575
 30
0.0
 10
0.1536338582677165
 20
1.128200787401575
 30
0.0
 10
0.1536338582677165
 20
1.128200787401575
 30
0.0
 10
0.1536338582677165
 20
1.128200787401575
 30
0.0
 10
0.1536338582677165
 20
1.128200787401575
 30
0.0
 10
0.1536338582677165
 20
1.118035433070866
 30
0.0
 10
0.1536338582677165
 20
1.118035433070866
 30
0.0
 10
0.1536338582677165
 20
1.118035433070866
 30
0.0
 10
0.1536338582677165
 20
1.118035433070866
 30
0.0
 10
0.1322992125984252
 20
1.118035433070866
 30
0.0
 10
0.1322992125984252
 20
1.118035433070866
 30
0.0
 10
0.1322992125984252
 20
1.118035433070866
 30
0.0
 10
0.1322992125984252
 20
1.118035433070866
 30
0.0
 10
0.1322992125984252
 20
1.080673228346457
 30
0.0
 10
0.1322992125984252
 20
1.080673228346457
 30
0.0
 10
0.1322992125984252
 20
1.080673228346457
 30
0.0
 10
0.1322992125984252
 20
1.080673228346457
 30
0.0
 10
0.1185511811023622
 20
1.080673228346457
 30
0.0
 10
0.1185511811023622
 20
1.080673228346457
 30
0.0
 10
0.1185511811023622
 20
1.080673228346457
 30
0.0
 10
0.1185511811023622
 20
1.080673228346457
 30
0.0
 10
0.1185511811023622
 20
1.118035433070866
 30
0.0
 10
0.1185511811023622
 20
1.118035433070866
 30
0.0
 10
0.1185511811023622
 20
1.118035433070866
 30
0.0
 10
0.1185511811023622
 20
1.118035433070866
 30
0.0
 10
0.0650787401574803
 20
1.118035433070866
 30
0.0
 10
0.0650787401574803
 20
1.118035433070866
 30
0.0
 10
0.0650787401574803
 20
1.118035433070866
 30
0.0
 10
0.0650787401574803
 20
1.118035433070866
 30
0.0
 10
0.0650787401574803
 20
1.132338582677166
 30
0.0
 10
0.0650787401574803
 20
1.132338582677166
 30
0.0
 10
0.0650787401574803
 20
1.132338582677166
 30
0.0
 10
0.0650787401574803
 20
1.132338582677166
 30
0.0
 10
0.1185511811023622
 20
1.194200787401575
 30
0.0
 10
0.1185511811023622
 20
1.194200787401575
 30
0.0
  0
SPLINE
  5
7B
330
1F
100
AcDbEntity
  8
LAYER_1
 62
   250
100
AcDbSpline
210
0.0
220
0.0
230
1.0
 70
    11
 71
     3
 72
    16
 73
    12
 74
     0
 42
0.0000000001
 43
0.0000000001
 40
0.0
 40
0.0
 40
0.0
 40
0.0
 40
0.3333333333333333
 40
0.3333333333333333
 40
0.3333333333333333
 40
0.3333333333333333
 40
0.6666666666666666
 40
0.6666666666666666
 40
0.6666666666666666
 40
0.6666666666666666
 40
1.0
 40
1.0
 40
1.0
 40
1.0
 10
0.1185511811023622
 20
1.128200787401575
 30
0.0
 10
0.1185511811023622
 20
1.128200787401575
 30
0.0
 10
0.1185511811023622
 20
1.181590551181103
 30
0.0
 10
0.1185511811023622
 20
1.181590551181103
 30
0.0
 10
0.1185511811023622
 20
1.181590551181103
 30
0.0
 10
0.1185511811023622
 20
1.181590551181103
 30
0.0
 10
0.072496062992126
 20
1.128200787401575
 30
0.0
 10
0.072496062992126
 20
1.128200787401575
 30
0.0
 10
0.072496062992126
 20
1.128200787401575
 30
0.0
 10
0.072496062992126
 20
1.128200787401575
 30
0.0
 10
0.1185511811023622
 20
1.128200787401575
 30
0.0
 10
0.1185511811023622
 20
1.128200787401575
 30
0.0
  0
SPLINE
  5
7C
330
1F
100
AcDbEntity
  8
LAYER_1
 62
   250
100
AcDbSpline
210
0.0
220
0.0
230
1.0
 70
    11
 71
     3
 72
    60
 73
    56
 74
     0
 42
0.0000000001
 43
0.0000000001
 40
0.0
 40
0.0
 40
0.0
 40
0.0
 40
0.0714285714285714
 40
0.0714285714285714
 40
0.0714285714285714
 40
0.0714285714285714
 40
0.1428571428571429
 40
0.1428571428571429
 40
0.1428571428571429
 40
0.1428571428571429
 40
0.2142857142857143
 40
0.2142857142857143
 40
0.2142857142857143
 40
0.2142857142857143
 40
0.2857142857142857
 40
0.2857142857142857
 40
0.2857142857142857
 40
0.2857142857142857
 40
0.3571428571428571
 40
0.3571428571428571
 40
0.3571428571428571
 40
0.3571428571428571
 40
0.4285714285714285
 40
0.4285714285714285
 40
0.4285714285714285
 40
0.4285714285714285
 40
0.4999999999999999
 40
0.4999999999999999
 40
0.4999999999999999
 40
0.4999999999999999
 40
0.5714285714285713
 40
0.5714285714285713
 40
0.5714285714285713
 40
0.5714285714285713
 40
0.6428571428571427
 40
0.6428571428571427
 40
0.6428571428571427
 40
0.6428571428571427
 40
0.7142857142857141
 40
0.7142857142857141
 40
0.7142857142857141
 40
0.7142857142857141
 40
0.7857142857142855
 40
0.7857142857142855
 40
0.7857142857142855
 40
0.7857142857142855
 40
0.8571428571428569
 40
0.8571428571428569
 40
0.8571428571428569
 40
0.8571428571428569
 40
0.9285714285714283
 40
0.9285714285714283
 40
0.9285714285714283
 40
0.9285714285714283
 40
1.0
 40
1.0
 40
1.0
 40
1.0
 10
0.1716062992125984
 20
1.152118110236221
 30
0.0
 10
0.1716062992125984
 20
1.152118110236221
 30
0.0
 10
0.1672165354330709
 20
1.157507874015748
 30
0.0
 10
0.1672165354330709
 20
1.157507874015748
 30
0.0
 10
0.1672165354330709
 20
1.157507874015748
 30
0.0
 10
0.1783307086614173
 20
1.166562992125984
 30
0.0
 10
0.1839133858267717
 20
1.174118110236221
 30
0.0
 10
0.1839133858267717
 20
1.180200787401575
 30
0.0
 10
0.1839133858267717
 20
1.180200787401575
 30
0.0
 10
0.1839133858267717
 20
1.180893700787402
 30
0.0
 10
0.1838582677165354
 20
1.181783464566929
 30
0.0
 10
0.183744094488189
 20
1.182811023622047
 30
0.0
 10
0.183744094488189
 20
1.182811023622047
 30
0.0
 10
0.1828307086614173
 20
1.18242125984252
 30
0.0
 10
0.1819133858267717
 20
1.182118110236221
 30
0.0
 10
0.1810511811023622
 20
1.18192125984252
 30
0.0
 10
0.1810511811023622
 20
1.18192125984252
 30
0.0
 10
0.1801889763779528
 20
1.181700787401575
 30
0.0
 10
0.1793858267716535
 20
1.181590551181103
 30
0.0
 10
0.1786062992125984
 20
1.181590551181103
 30
0.0
 10
0.1786062992125984
 20
1.181590551181103
 30
0.0
 10
0.175996062992126
 20
1.181590551181103
 30
0.0
 10
0.1739133858267717
 20
1.18242125984252
 30
0.0
 10
0.1723582677165355
 20
1.184118110236221
 30
0.0
 10
0.1723582677165355
 20
1.184118110236221
 30
0.0
 10
0.1707716535433071
 20
1.185783464566929
 30
0.0
 10
0.169996062992126
 20
1.18792125984252
 30
0.0
 10
0.169996062992126
 20
1.190535433070866
 30
0.0
 10
0.169996062992126
 20
1.190535433070866
 30
0.0
 10
0.169996062992126
 20
1.193090551181102
 30
0.0
 10
0.1709409448818898
 20
1.195311023622047
 30
0.0
 10
0.1728307086614173
 20
1.197200787401575
 30
0.0
 10
0.1728307086614173
 20
1.197200787401575
 30
0.0
 10
0.174744094488189
 20
1.199118110236221
 30
0.0
 10
0.1770236220472441
 20
1.200062992125984
 30
0.0
 10
0.1796614173228347
 20
1.200062992125984
 30
0.0
 10
0.1796614173228347
 20
1.200062992125984
 30
0.0
 10
0.1833582677165354
 20
1.200062992125984
 30
0.0
 10
0.1865236220472441
 20
1.198590551181102
 30
0.0
 10
0.1891614173228347
 20
1.19561811023622
 30
0.0
 10
0.1891614173228347
 20
1.19561811023622
 30
0.0
 10
0.1917716535433071
 20
1.192673228346457
 30
0.0
 10
0.1931062992125984
 20
1.188866141732283
 30
0.0
 10
0.1931062992125984
 20
1.184200787401575
 30
0.0
 10
0.1931062992125984
 20
1.184200787401575
 30
0.0
 10
0.1931062992125984
 20
1.181145669291339
 30
0.0
 10
0.1924685039370079
 20
1.177948818897638
 30
0.0
 10
0.1912165354330709
 20
1.174618110236221
 30
0.0
 10
0.1912165354330709
 20
1.174618110236221
 30
0.0
 10
0.1899685039370079
 20
1.171283464566929
 30
0.0
 10
0.1881614173228347
 20
1.168200787401575
 30
0.0
 10
0.1857716535433071
 20
1.165338582677165
 30
0.0
 10
0.1857716535433071
 20
1.165338582677165
 30
0.0
 10
0.1833858267716536
 20
1.162507874015748
 30
0.0
 10
0.1786614173228347
 20
1.158090551181102
 30
0.0
 10
0.1716062992125984
 20
1.152118110236221
 30
0.0
  0
SPLINE
  5
7D
330
1F
100
AcDbEntity
  8
LAYER_1
 62
   250
100
AcDbSpline
210
0.0
220
0.0
230
1.0
 70
    11
 71
     3
 72
    60
 73
    56
 74
     0
 42
0.0000000001
 43
0.0000000001
 40
0.0
 40
0.0
 40
0.0
 40
0.0
 40
0.0714285714285714
 40
0.0714285714285714
 40
0.0714285714285714
 40
0.0714285714285714
 40
0.1428571428571429
 40
0.1428571428571429
 40
0.1428571428571429
 40
0.1428571428571429
 40
0.2142857142857143
 40
0.2142857142857143
 40
0.2142857142857143
 40
0.2142857142857143
 40
0.2857142857142857
 40
0.2857142857142857
 40
0.2857142857142857
 40
0.2857142857142857
 40
0.3571428571428571
 40
0.3571428571428571
 40
0.3571428571428571
 40
0.3571428571428571
 40
0.4285714285714285
 40
0.4285714285714285
 40
0.4285714285714285
 40
0.4285714285714285
 40
0.4999999999999999
 40
0.4999999999999999
 40
0.4999999999999999
 40
0.4999999999999999
 40
0.5714285714285713
 40
0.5714285714285713
 40
0.5714285714285713
 40
0.5714285714285713
 40
0.6428571428571427
 40
0.6428571428571427
 40
0.6428571428571427
 40
0.6428571428571427
 40
0.7142857142857141
 40
0.7142857142857141
 40
0.7142857142857141
 40
0.7142857142857141
 40
0.7857142857142855
 40
0.7857142857142855
 40
0.7857142857142855
 40
0.7857142857142855
 40
0.8571428571428569
 40
0.8571428571428569
 40
0.8571428571428569
 40
0.8571428571428569
 40
0.9285714285714283
 40
0.9285714285714283
 40
0.9285714285714283
 40
0.9285714285714283
 40
1.0
 40
1.0
 40
1.0
 40
1.0
 10
0.2006614173228347
 20
1.152118110236221
 30
0.0
 10
0.2006614173228347
 20
1.152118110236221
 30
0.0
 10
0.1962716535433071
 20
1.157507874015748
 30
0.0
 10
0.1962716535433071
 20
1.157507874015748
 30
0.0
 10
0.1962716535433071
 20
1.157507874015748
 30
0.0
 10
0.2073858267716535
 20
1.166562992125984
 30
0.0
 10
0.2129685039370079
 20
1.174118110236221
 30
0.0
 10
0.2129685039370079
 20
1.180200787401575
 30
0.0
 10
0.2129685039370079
 20
1.180200787401575
 30
0.0
 10
0.2129685039370079
 20
1.180893700787402
 30
0.0
 10
0.2129133858267717
 20
1.181783464566929
 30
0.0
 10
0.2127992125984252
 20
1.182811023622047
 30
0.0
 10
0.2127992125984252
 20
1.182811023622047
 30
0.0
 10
0.2118858267716536
 20
1.18242125984252
 30
0.0
 10
0.2109685039370079
 20
1.182118110236221
 30
0.0
 10
0.2101062992125984
 20
1.18192125984252
 30
0.0
 10
0.2101062992125984
 20
1.18192125984252
 30
0.0
 10
0.209244094488189
 20
1.181700787401575
 30
0.0
 10
0.2084133858267717
 20
1.181590551181103
 30
0.0
 10
0.2075787401574803
 20
1.181590551181103
 30
0.0
 10
0.2075787401574803
 20
1.181590551181103
 30
0.0
 10
0.2050236220472441
 20
1.181590551181103
 30
0.0
 10
0.2029685039370079
 20
1.18242125984252
 30
0.0
 10
0.2014133858267717
 20
1.184118110236221
 30
0.0
 10
0.2014133858267717
 20
1.184118110236221
 30
0.0
 10
0.1998307086614173
 20
1.185783464566929
 30
0.0
 10
0.1990511811023622
 20
1.18792125984252
 30
0.0
 10
0.1990511811023622
 20
1.190535433070866
 30
0.0
 10
0.1990511811023622
 20
1.190535433070866
 30
0.0
 10
0.1990511811023622
 20
1.193090551181102
 30
0.0
 10
0.199996062992126
 20
1.195311023622047
 30
0.0
 10
0.2018858267716535
 20
1.197200787401575
 30
0.0
 10
0.2018858267716535
 20
1.197200787401575
 30
0.0
 10
0.2037716535433071
 20
1.199118110236221
 30
0.0
 10
0.2060787401574803
 20
1.200062992125984
 30
0.0
 10
0.2087165354330709
 20
1.200062992125984
 30
0.0
 10
0.2087165354330709
 20
1.200062992125984
 30
0.0
 10
0.2124133858267717
 20
1.200062992125984
 30
0.0
 10
0.2155787401574803
 20
1.198590551181102
 30
0.0
 10
0.2182165354330709
 20
1.19561811023622
 30
0.0
 10
0.2182165354330709
 20
1.19561811023622
 30
0.0
 10
0.2208267716535433
 20
1.192673228346457
 30
0.0
 10
0.2221614173228347
 20
1.188866141732283
 30
0.0
 10
0.2221614173228347
 20
1.184200787401575
 30
0.0
 10
0.2221614173228347
 20
1.184200787401575
 30
0.0
 10
0.2221614173228347
 20
1.181145669291339
 30
0.0
 10
0.2215236220472441
 20
1.177948818897638
 30
0.0
 10
0.2202716535433071
 20
1.174618110236221
 30
0.0
 10
0.2202716535433071
 20
1.174618110236221
 30
0.0
 10
0.2190236220472441
 20
1.171283464566929
 30
0.0
 10
0.2172165354330709
 20
1.168200787401575
 30
0.0
 10
0.2148307086614173
 20
1.165338582677165
 30
0.0
 10
0.2148307086614173
 20
1.165338582677165
 30
0.0
 10
0.2124409448818898
 20
1.162507874015748
 30
0.0
 10
0.2077165354330709
 20
1.158090551181102
 30
0.0
 10
0.2006614173228347
 20
1.152118110236221
 30
0.0
  0
ENDSEC
  0
SECTION
  2
OBJECTS
  0
DICTIONARY
  5
C
330
0
100
AcDbDictionary
  3
ACAD_GROUP
350
D
  3
ACAD_LAYOUT
350
1A
  3
ACAD_MLINESTYLE
350
17
  3
ACAD_PLOTSETTINGS
350
19
  3
ACDBHEADERROUNDTRIPXREC
350
7E
  0
DICTIONARY
  5
9E
330
29
100
AcDbDictionary
280
     1
  3
ACAD_XREC_ROUNDTRIP
360
9F
  0
DICTIONARY
  5
D
102
{ACAD_REACTORS
330
C
102
}
330
C
100
AcDbDictionary
  0
DICTIONARY
  5
1A
102
{ACAD_REACTORS
330
C
102
}
330
C
100
AcDbDictionary
  0
DICTIONARY
  5
17
102
{ACAD_REACTORS
330
C
102
}
330
C
100
AcDbDictionary
  3
STANDARD
350
18
  0
DICTIONARY
  5
19
102
{ACAD_REACTORS
330
C
102
}
330
C
100
AcDbDictionary
  0
DICTIONARY
  5
7E
102
{ACAD_REACTORS
330
C
102
}
330
C
100
AcDbDictionary
  3
CEPSNTYPE
350
87
  3
DIMSTYLEDATA
350
9D
  3
FINGERPRINTGUID
350
88
  3
HYPERLINKBASE
350
81
  3
INSUNITS
350
86
  3
LAYOUTDICT
350
83
  3
LWETCUNION
350
85
  3
PLOTSETDICT
350
84
  3
PSVPSCALE
350
8A
  3
PUCSBASE
350
8D
  3
PUCSORGBACK
350
93
  3
PUCSORGBOTTOM
350
8F
  3
PUCSORGFRONT
350
92
  3
PUCSORGLEFT
350
90
  3
PUCSORGRIGHT
350
91
  3
PUCSORGTOP
350
8E
  3
PUCSORTHOREF
350
8B
  3
PUCSORTHOVIEW
350
8C
  3
STYLESHEET
350
82
  3
TSTACKALIGN
350
7F
  3
TSTACKSIZE
350
80
  3
UCSBASE
350
96
  3
UCSORGBACK
350
9C
  3
UCSORGBOTTOM
350
98
  3
UCSORGFRONT
350
9B
  3
UCSORGLEFT
350
99
  3
UCSORGRIGHT
350
9A
  3
UCSORGTOP
350
97
  3
UCSORTHOREF
350
94
  3
UCSORTHOVIEW
350
95
  3
VERSIONGUID
350
89
  0
XRECORD
  5
9F
102
{ACAD_REACTORS
330
9E
102
}
330
9E
100
AcDbXrecord
102
UCS
 74
     0
 71
     1
 10
0.0
 20
0.0
 30
0.0
 10
1.0
 20
0.0
 30
0.0
 10
0.0
 20
1.0
 30
0.0
146
0.0
 79
     0
102
VIEW
281
     0
  0
MLINESTYLE
  5
18
102
{ACAD_REACTORS
330
17
102
}
330
17
100
AcDbMlineStyle
  2
Standard
 70
     0
  3

 62
   256
 51
90.0
 52
90.0
 71
     2
 49
0.5
 62
   256
  6
BYLAYER
 49
-0.5
 62
   256
  6
BYLAYER
  0
XRECORD
  5
87
102
{ACAD_REACTORS
330
7E
102
}
330
7E
100
AcDbXrecord
 90
        0
  0
XRECORD
  5
9D
102
{ACAD_REACTORS
330
7E
102
}
330
7E
100
AcDbXrecord
1000
DSTYLE
1002
{
1070
   340
340
11
1002
}
  0
XRECORD
  5
88
102
{ACAD_REACTORS
330
7E
102
}
330
7E
100
AcDbXrecord
  1
{FAEB1C30-E019-11D5-929B-00C0DF256EC4}
  0
XRECORD
  5
81
102
{ACAD_REACTORS
330
7E
102
}
330
7E
100
AcDbXrecord
  1

  0
XRECORD
  5
86
102
{ACAD_REACTORS
330
7E
102
}
330
7E
100
AcDbXrecord
 90
        1
  0
XRECORD
  5
83
102
{ACAD_REACTORS
330
7E
102
}
330
7E
100
AcDbXrecord
340
1A
  0
XRECORD
  5
85
102
{ACAD_REACTORS
330
7E
102
}
330
7E
100
AcDbXrecord
 90
     2560
  0
XRECORD
  5
84
102
{ACAD_REACTORS
330
7E
102
}
330
7E
100
AcDbXrecord
340
19
  0
XRECORD
  5
8A
102
{ACAD_REACTORS
330
7E
102
}
330
7E
100
AcDbXrecord
 40
0.0
  0
XRECORD
  5
8D
102
{ACAD_REACTORS
330
7E
102
}
330
7E
100
AcDbXrecord
340
0
  0
XRECORD
  5
93
102
{ACAD_REACTORS
330
7E
102
}
330
7E
100
AcDbXrecord
 10
0.0
 20
0.0
 30
0.0
  0
XRECORD
  5
8F
102
{ACAD_REACTORS
330
7E
102
}
330
7E
100
AcDbXrecord
 10
0.0
 20
0.0
 30
0.0
  0
XRECORD
  5
92
102
{ACAD_REACTORS
330
7E
102
}
330
7E
100
AcDbXrecord
 10
0.0
 20
0.0
 30
0.0
  0
XRECORD
  5
90
102
{ACAD_REACTORS
330
7E
102
}
330
7E
100
AcDbXrecord
 10
0.0
 20
0.0
 30
0.0
  0
XRECORD
  5
91
102
{ACAD_REACTORS
330
7E
102
}
330
7E
100
AcDbXrecord
 10
0.0
 20
0.0
 30
0.0
  0
XRECORD
  5
8E
102
{ACAD_REACTORS
330
7E
102
}
330
7E
100
AcDbXrecord
 10
0.0
 20
0.0
 30
0.0
  0
XRECORD
  5
8B
102
{ACAD_REACTORS
330
7E
102
}
330
7E
100
AcDbXrecord
340
0
  0
XRECORD
  5
8C
102
{ACAD_REACTORS
330
7E
102
}
330
7E
100
AcDbXrecord
 70
     0
  0
XRECORD
  5
82
102
{ACAD_REACTORS
330
7E
102
}
330
7E
100
AcDbXrecord
  1

  0
XRECORD
  5
7F
102
{ACAD_REACTORS
330
7E
102
}
330
7E
100
AcDbXrecord
 90
        1
  0
XRECORD
  5
80
102
{ACAD_REACTORS
330
7E
102
}
330
7E
100
AcDbXrecord
 90
       70
  0
XRECORD
  5
96
102
{ACAD_REACTORS
330
7E
102
}
330
7E
100
AcDbXrecord
340
0
  0
XRECORD
  5
9C
102
{ACAD_REACTORS
330
7E
102
}
330
7E
100
AcDbXrecord
 10
0.0
 20
0.0
 30
0.0
  0
XRECORD
  5
98
102
{ACAD_REACTORS
330
7E
102
}
330
7E
100
AcDbXrecord
 10
0.0
 20
0.0
 30
0.0
  0
XRECORD
  5
9B
102
{ACAD_REACTORS
330
7E
102
}
330
7E
100
AcDbXrecord
 10
0.0
 20
0.0
 30
0.0
  0
XRECORD
  5
99
102
{ACAD_REACTORS
330
7E
102
}
330
7E
100
AcDbXrecord
 10
0.0
 20
0.0
 30
0.0
  0
XRECORD
  5
9A
102
{ACAD_REACTORS
330
7E
102
}
330
7E
100
AcDbXrecord
 10
0.0
 20
0.0
 30
0.0
  0
XRECORD
  5
97
102
{ACAD_REACTORS
330
7E
102
}
330
7E
100
AcDbXrecord
 10
0.0
 20
0.0
 30
0.0
  0
XRECORD
  5
94
102
{ACAD_REACTORS
330
7E
102
}
330
7E
100
AcDbXrecord
340
0
  0
XRECORD
  5
95
102
{ACAD_REACTORS
330
7E
102
}
330
7E
100
AcDbXrecord
 70
     0
  0
XRECORD
  5
89
102
{ACAD_REACTORS
330
7E
102
}
330
7E
100
AcDbXrecord
  1
{FAEB1C32-E019-11D5-929B-00C0DF256EC4}
  0
ENDSEC
  0
EOF
