  0
SECTION
  2
HEADER
  9
$ACADVER
  1
AC1006
  9
$EXTMIN
 10
0.822360
 20
1.202520
  9
$EXTMAX
 10
7.478240
 20
6.057480
  9
$LTSCALE
 40
0.044000
  9
$PDMODE
 70
    35
  9
$PDSIZE
 40
0.035200
  0
ENDSEC
  0
SECTION
  2
TABLES
  0
TABLE
  2
LTYPE
 70
     9
  0
LTYPE
  2
CONTINUOUS
 70
    64
  3
Solid line
 72
    65
 73
     0
 40
0.000000
  0
LTYPE
  2
DASHED
 70
    64
  3
__ __ __ __ __ __ __ __ __ __ __ __ __ __ __
 72
    65
 73
     2
 40
0.000330
 49
0.000220
 49
-0.000110
  0
LTYPE
  2
HIDDEN
 70
    64
  3
 _ _ _ _ _ _ _ _ _ _ _ _ _ _ _ _ _ _ _ _ _ _
 72
    65
 73
     2
 40
0.000165
 49
0.000110
 49
-0.000055
  0
LTYPE
  2
CENTER
 70
    64
  3
____ _ ____ _ ____ _ ____ _ ____ _ ____ _ ____
 72
    65
 73
     4
 40
0.000880
 49
0.000550
 49
-0.000110
 49
0.000110
 49
-0.000110
  0
LTYPE
  2
PHANTOM
 70
    64
  3
_____ _ _ _____ _ _ _____ _ _ _____ _ _ ____
 72
    65
 73
     6
 40
0.001100
 49
0.000550
 49
-0.000110
 49
0.000110
 49
-0.000110
 49
0.000110
 49
-0.000110
  0
LTYPE
  2
DOT
 70
    64
  3
...............................................
 72
    65
 73
     2
 40
0.000110
 49
0.000000
 49
-0.000110
  0
LTYPE
  2
DASHDOT
 70
    64
  3
__ . __ . __ . __ . __ . __ . __ . __ . __ . __
 72
    65
 73
     4
 40
0.000440
 49
0.000220
 49
-0.000110
 49
0.000000
 49
-0.000110
  0
LTYPE
  2
BORDER
 70
    64
  3
__ __ . __ __ . __ __ . __ __ . __ __ . __ __
 72
    65
 73
     6
 40
0.000770
 49
0.000220
 49
-0.000110
 49
0.000220
 49
-0.000110
 49
0.000000
 49
-0.000110
  0
LTYPE
  2
DIVIDE
 70
    64
  3
__ . . __ . . __ . . __ . . __ . . __ . . __
 72
    65
 73
     6
 40
0.000550
 49
0.000220
 49
-0.000110
 49
0.000000
 49
-0.000110
 49
0.000000
 49
-0.000110
  0
LTYPE
  2
DOTDOT
 70
    64
  3
 . .  . .  . .  . .  . .  . . 
 72
    65
 73
     5
 40
0.000242
 49
-0.000110
 49
0.000000
 49
-0.000110
 49
0.000000
 49
-0.000110
  0
ENDTAB
  0
TABLE
  2
STYLE
 70
     2
  0
STYLE
 70
     0
  2
SN0
 40
0.000000
 41
0.000440
 50
0.000000
 71
     0
 42
0.000000
  3
ROMAND
  0
STYLE
 70
    68
  2
SV0
 40
0.000000
 41
0.000440
 50
0.000000
 71
     0
 42
0.000000
  3
ROMAND
  0
ENDTAB
  0
TABLE
  2
LAYER
 70
     3
  0
LAYER
  2
FOREGROUND
 70
    64
 62
     7
  6
CONTINUOUS
  0
LAYER
  2
BACKGROUND
 70
    65
 62
    -7
  6
CONTINUOUS
  0
LAYER
  2
0
 70
    64
 62
     7
  6
CONTINUOUS
  0
ENDTAB
  0
ENDSEC
  0
SECTION
  2
ENTITIES
  0
POLYLINE
  8
FOREGROUND
  6
CONTINUOUS
 66
     1
 40
0.000000
 41
0.000000
  0
VERTEX
  8
FOREGROUND
  6
CONTINUOUS
 10
0.000000
 20
7.260000
  0
VERTEX
  8
FOREGROUND
  6
CONTINUOUS
 10
8.499920
 20
7.260000
  0
VERTEX
  8
FOREGROUND
  6
CONTINUOUS
 10
8.499920
 20
-3.740000
  0
VERTEX
  8
FOREGROUND
  6
CONTINUOUS
 10
0.000000
 20
-3.740000
  0
VERTEX
  8
FOREGROUND
  6
CONTINUOUS
 10
0.000000
 20
7.260000
  0
SEQEND
  8
0
  0
POLYLINE
  8
FOREGROUND
  6
CONTINUOUS
 66
     1
 40
0.000000
 41
0.000000
  0
VERTEX
  8
FOREGROUND
  6
CONTINUOUS
 10
0.000000
 20
7.260000
  0
VERTEX
  8
FOREGROUND
  6
CONTINUOUS
 10
8.499920
 20
7.260000
  0
VERTEX
  8
FOREGROUND
  6
CONTINUOUS
 10
8.499920
 20
-3.740000
  0
VERTEX
  8
FOREGROUND
  6
CONTINUOUS
 10
0.000000
 20
-3.740000
  0
VERTEX
  8
FOREGROUND
  6
CONTINUOUS
 10
0.000000
 20
7.260000
  0
SEQEND
  8
0
  0
POLYLINE
  8
0
  6
CONTINUOUS
 66
     1
 40
0.014080
 41
0.014080
  0
VERTEX
  8
0
  6
CONTINUOUS
 10
7.450080
 20
5.049880
  0
VERTEX
  8
0
  6
CONTINUOUS
 10
7.319400
 20
5.049880
  0
VERTEX
  8
0
  6
CONTINUOUS
 10
0.829840
 20
5.049880
  0
VERTEX
  8
0
  6
CONTINUOUS
 10
0.829840
 20
6.049560
  0
VERTEX
  8
0
  6
CONTINUOUS
 10
2.070640
 20
6.049560
  0
VERTEX
  8
0
  6
CONTINUOUS
 10
2.220240
 20
5.789080
  0
VERTEX
  8
0
  6
CONTINUOUS
 10
5.817240
 20
5.789080
  0
VERTEX
  8
0
  6
CONTINUOUS
 10
6.066280
 20
5.789080
  0
VERTEX
  8
0
  6
CONTINUOUS
 10
6.215880
 20
6.050000
  0
VERTEX
  8
0
  6
CONTINUOUS
 10
7.450080
 20
6.050000
  0
VERTEX
  8
0
  6
CONTINUOUS
 10
7.450080
 20
5.127320
  0
VERTEX
  8
0
  6
CONTINUOUS
 10
7.450080
 20
5.050320
  0
VERTEX
  8
0
  6
CONTINUOUS
 10
7.450080
 20
5.049880
  0
SEQEND
  8
0
  0
TEXT
  8
0
 10
3.953400
 20
5.372400
 40
0.138198
  1
BA  1239
 41
1.000000
  7
SN0
 71
     0
 72
     5
 11
4.635295
 21
5.372400
  0
TEXT
  8
0
 10
3.912920
 20
5.180560
 40
0.138198
  1
1" x 6-5/8"
 41
1.000000
  7
SN0
 71
     0
 72
     5
 11
4.675018
 21
5.180560
  0
SOLID
  8
0
 62
    15
 10
2.095280
 20
2.702920
 11
2.098800
 21
3.440800
 12
2.244440
 22
2.442440
 13
2.247960
 23
3.180760
  0
POLYLINE
  8
0
  6
CONTINUOUS
 66
     1
 40
0.000000
 41
0.000000
  0
VERTEX
  8
0
  6
CONTINUOUS
 10
2.095280
 20
2.702920
  0
VERTEX
  8
0
  6
CONTINUOUS
 10
2.098800
 20
3.440800
  0
VERTEX
  8
0
  6
CONTINUOUS
 10
2.247960
 20
3.180760
  0
VERTEX
  8
0
  6
CONTINUOUS
 10
2.244440
 20
2.442440
  0
VERTEX
  8
0
  6
CONTINUOUS
 10
2.095280
 20
2.702920
  0
SEQEND
  8
0
  0
SOLID
  8
0
 62
    15
 10
2.244440
 20
2.442440
 11
2.247960
 21
3.180760
 12
6.090920
 22
2.442440
 13
6.094440
 23
3.180760
  0
POLYLINE
  8
0
  6
CONTINUOUS
 66
     1
 40
0.000000
 41
0.000000
  0
VERTEX
  8
0
  6
CONTINUOUS
 10
2.244440
 20
2.442440
  0
VERTEX
  8
0
  6
CONTINUOUS
 10
2.247960
 20
3.180760
  0
VERTEX
  8
0
  6
CONTINUOUS
 10
6.094440
 20
3.180760
  0
VERTEX
  8
0
  6
CONTINUOUS
 10
6.090920
 20
2.442440
  0
VERTEX
  8
0
  6
CONTINUOUS
 10
2.244440
 20
2.442440
  0
SEQEND
  8
0
  0
SOLID
  8
0
 62
    15
 10
6.090920
 20
2.442440
 11
6.094440
 21
3.180760
 12
6.240520
 22
2.703360
 13
6.244040
 23
3.441680
  0
POLYLINE
  8
0
  6
CONTINUOUS
 66
     1
 40
0.000000
 41
0.000000
  0
VERTEX
  8
0
  6
CONTINUOUS
 10
6.090920
 20
2.442440
  0
VERTEX
  8
0
  6
CONTINUOUS
 10
6.094440
 20
3.180760
  0
VERTEX
  8
0
  6
CONTINUOUS
 10
6.244040
 20
3.441680
  0
VERTEX
  8
0
  6
CONTINUOUS
 10
6.240520
 20
2.703360
  0
VERTEX
  8
0
  6
CONTINUOUS
 10
6.090920
 20
2.442440
  0
SEQEND
  8
0
  0
SOLID
  8
0
 62
    15
 10
7.474280
 20
2.703360
 11
7.478240
 21
3.441680
 12
7.474280
 22
1.704120
 13
7.478240
 23
2.442000
  0
POLYLINE
  8
0
  6
CONTINUOUS
 66
     1
 40
0.000000
 41
0.000000
  0
VERTEX
  8
0
  6
CONTINUOUS
 10
7.474280
 20
2.703360
  0
VERTEX
  8
0
  6
CONTINUOUS
 10
7.478240
 20
3.441680
  0
VERTEX
  8
0
  6
CONTINUOUS
 10
7.478240
 20
2.442000
  0
VERTEX
  8
0
  6
CONTINUOUS
 10
7.474280
 20
1.704120
  0
VERTEX
  8
0
  6
CONTINUOUS
 10
7.474280
 20
2.703360
  0
SEQEND
  8
0
  0
SOLID
  8
0
 62
    15
 10
6.240520
 20
2.703360
 11
6.244040
 21
3.441680
 12
7.474280
 22
2.703360
 13
7.478240
 23
3.441680
  0
POLYLINE
  8
0
  6
CONTINUOUS
 66
     1
 40
0.000000
 41
0.000000
  0
VERTEX
  8
0
  6
CONTINUOUS
 10
6.240520
 20
2.703360
  0
VERTEX
  8
0
  6
CONTINUOUS
 10
6.244040
 20
3.441680
  0
VERTEX
  8
0
  6
CONTINUOUS
 10
7.478240
 20
3.441680
  0
VERTEX
  8
0
  6
CONTINUOUS
 10
7.474280
 20
2.703360
  0
VERTEX
  8
0
  6
CONTINUOUS
 10
6.240520
 20
2.703360
  0
SEQEND
  8
0
  0
SOLID
  8
0
 62
    15
 10
7.474280
 20
1.704120
 11
7.478240
 21
2.442000
 12
7.474280
 22
1.703680
 13
7.478240
 23
2.441560
  0
POLYLINE
  8
0
  6
CONTINUOUS
 66
     1
 40
0.000000
 41
0.000000
  0
VERTEX
  8
0
  6
CONTINUOUS
 10
7.474280
 20
1.704120
  0
VERTEX
  8
0
  6
CONTINUOUS
 10
7.478240
 20
2.442000
  0
VERTEX
  8
0
  6
CONTINUOUS
 10
7.478240
 20
2.441560
  0
VERTEX
  8
0
  6
CONTINUOUS
 10
7.474280
 20
1.703680
  0
VERTEX
  8
0
  6
CONTINUOUS
 10
7.474280
 20
1.704120
  0
SEQEND
  8
0
  0
SOLID
  8
0
 62
    15
 10
0.854480
 20
2.702920
 11
0.858000
 21
3.440800
 12
2.095280
 22
2.702920
 13
2.098800
 23
3.440800
  0
POLYLINE
  8
0
  6
CONTINUOUS
 66
     1
 40
0.000000
 41
0.000000
  0
VERTEX
  8
0
  6
CONTINUOUS
 10
0.854480
 20
2.702920
  0
VERTEX
  8
0
  6
CONTINUOUS
 10
0.858000
 20
3.440800
  0
VERTEX
  8
0
  6
CONTINUOUS
 10
2.098800
 20
3.440800
  0
VERTEX
  8
0
  6
CONTINUOUS
 10
2.095280
 20
2.702920
  0
VERTEX
  8
0
  6
CONTINUOUS
 10
0.854480
 20
2.702920
  0
SEQEND
  8
0
  0
POLYLINE
  8
0
  6
CONTINUOUS
 66
     1
 40
0.000000
 41
0.000000
  0
VERTEX
  8
0
  6
CONTINUOUS
 10
7.474280
 20
1.703680
  0
VERTEX
  8
0
  6
CONTINUOUS
 10
0.854480
 20
1.703680
  0
VERTEX
  8
0
  6
CONTINUOUS
 10
0.854480
 20
2.702920
  0
VERTEX
  8
0
  6
CONTINUOUS
 10
2.095280
 20
2.702920
  0
VERTEX
  8
0
  6
CONTINUOUS
 10
2.244440
 20
2.442440
  0
VERTEX
  8
0
  6
CONTINUOUS
 10
6.090920
 20
2.442440
  0
VERTEX
  8
0
  6
CONTINUOUS
 10
6.240520
 20
2.703360
  0
VERTEX
  8
0
  6
CONTINUOUS
 10
7.474280
 20
2.703360
  0
VERTEX
  8
0
  6
CONTINUOUS
 10
7.474280
 20
1.704120
  0
VERTEX
  8
0
  6
CONTINUOUS
 10
7.474280
 20
1.703680
  0
SEQEND
  8
0
  0
TEXT
  8
0
 10
3.824480
 20
1.445400
 40
0.138198
  1
BA  1239
 41
1.000000
  7
SN0
 71
     0
 72
     5
 11
4.506375
 21
1.445400
  0
TEXT
  8
0
 10
3.784000
 20
1.253560
 40
0.138198
  1
1" x 6-5/8"
 41
1.000000
  7
SN0
 71
     0
 72
     5
 11
4.546098
 21
1.253560
  0
ENDSEC
  0
EOF
