  0
SECTION
  2
HEADER
  9
$ACADVER
  1
AC1006
  9
$EXTMIN
 10
3.860120
 20
0.570680
  9
$EXTMAX
 10
5.729240
 20
3.646280
  9
$LTSCALE
 40
0.044000
  9
$PDMODE
 70
    35
  9
$PDSIZE
 40
0.035200
  0
ENDSEC
  0
SECTION
  2
TABLES
  0
TABLE
  2
LTYPE
 70
     9
  0
LTYPE
  2
CONTINUOUS
 70
    64
  3
Solid line
 72
    65
 73
     0
 40
0.000000
  0
LTYPE
  2
DASHED
 70
    64
  3
__ __ __ __ __ __ __ __ __ __ __ __ __ __ __
 72
    65
 73
     2
 40
0.000330
 49
0.000220
 49
-0.000110
  0
LTYPE
  2
HIDDEN
 70
    64
  3
 _ _ _ _ _ _ _ _ _ _ _ _ _ _ _ _ _ _ _ _ _ _
 72
    65
 73
     2
 40
0.000165
 49
0.000110
 49
-0.000055
  0
LTYPE
  2
CENTER
 70
    64
  3
____ _ ____ _ ____ _ ____ _ ____ _ ____ _ ____
 72
    65
 73
     4
 40
0.000880
 49
0.000550
 49
-0.000110
 49
0.000110
 49
-0.000110
  0
LTYPE
  2
PHANTOM
 70
    64
  3
_____ _ _ _____ _ _ _____ _ _ _____ _ _ ____
 72
    65
 73
     6
 40
0.001100
 49
0.000550
 49
-0.000110
 49
0.000110
 49
-0.000110
 49
0.000110
 49
-0.000110
  0
LTYPE
  2
DOT
 70
    64
  3
...............................................
 72
    65
 73
     2
 40
0.000110
 49
0.000000
 49
-0.000110
  0
LTYPE
  2
DASHDOT
 70
    64
  3
__ . __ . __ . __ . __ . __ . __ . __ . __ . __
 72
    65
 73
     4
 40
0.000440
 49
0.000220
 49
-0.000110
 49
0.000000
 49
-0.000110
  0
LTYPE
  2
BORDER
 70
    64
  3
__ __ . __ __ . __ __ . __ __ . __ __ . __ __
 72
    65
 73
     6
 40
0.000770
 49
0.000220
 49
-0.000110
 49
0.000220
 49
-0.000110
 49
0.000000
 49
-0.000110
  0
LTYPE
  2
DIVIDE
 70
    64
  3
__ . . __ . . __ . . __ . . __ . . __ . . __
 72
    65
 73
     6
 40
0.000550
 49
0.000220
 49
-0.000110
 49
0.000000
 49
-0.000110
 49
0.000000
 49
-0.000110
  0
LTYPE
  2
DOTDOT
 70
    64
  3
 . .  . .  . .  . .  . .  . . 
 72
    65
 73
     5
 40
0.000242
 49
-0.000110
 49
0.000000
 49
-0.000110
 49
0.000000
 49
-0.000110
  0
ENDTAB
  0
TABLE
  2
STYLE
 70
     2
  0
STYLE
 70
     0
  2
SN0
 40
0.000000
 41
0.000440
 50
0.000000
 71
     0
 42
0.000000
  3
ROMAND
  0
STYLE
 70
    68
  2
SV0
 40
0.000000
 41
0.000440
 50
0.000000
 71
     0
 42
0.000000
  3
ROMAND
  0
ENDTAB
  0
TABLE
  2
LAYER
 70
     3
  0
LAYER
  2
FOREGROUND
 70
    64
 62
     7
  6
CONTINUOUS
  0
LAYER
  2
BACKGROUND
 70
    65
 62
    -7
  6
CONTINUOUS
  0
LAYER
  2
0
 70
    64
 62
     7
  6
CONTINUOUS
  0
ENDTAB
  0
ENDSEC
  0
SECTION
  2
ENTITIES
  0
POLYLINE
  8
FOREGROUND
  6
CONTINUOUS
 66
     1
 40
0.000000
 41
0.000000
  0
VERTEX
  8
FOREGROUND
  6
CONTINUOUS
 10
0.000000
 20
4.216960
  0
VERTEX
  8
FOREGROUND
  6
CONTINUOUS
 10
8.499920
 20
4.216960
  0
VERTEX
  8
FOREGROUND
  6
CONTINUOUS
 10
8.499920
 20
-6.783040
  0
VERTEX
  8
FOREGROUND
  6
CONTINUOUS
 10
0.000000
 20
-6.783040
  0
VERTEX
  8
FOREGROUND
  6
CONTINUOUS
 10
0.000000
 20
4.216960
  0
SEQEND
  8
0
  0
POLYLINE
  8
FOREGROUND
  6
CONTINUOUS
 66
     1
 40
0.000000
 41
0.000000
  0
VERTEX
  8
FOREGROUND
  6
CONTINUOUS
 10
0.000000
 20
4.216960
  0
VERTEX
  8
FOREGROUND
  6
CONTINUOUS
 10
8.499920
 20
4.216960
  0
VERTEX
  8
FOREGROUND
  6
CONTINUOUS
 10
8.499920
 20
-6.783040
  0
VERTEX
  8
FOREGROUND
  6
CONTINUOUS
 10
0.000000
 20
-6.783040
  0
VERTEX
  8
FOREGROUND
  6
CONTINUOUS
 10
0.000000
 20
4.216960
  0
SEQEND
  8
0
  0
POLYLINE
  8
0
  6
CONTINUOUS
 66
     1
 40
0.014080
 41
0.014080
  0
VERTEX
  8
0
  6
CONTINUOUS
 10
3.868040
 20
3.415280
  0
VERTEX
  8
0
  6
CONTINUOUS
 10
3.963960
 20
3.415280
  0
VERTEX
  8
0
  6
CONTINUOUS
 10
3.964840
 20
3.438600
  0
VERTEX
  8
0
  6
CONTINUOUS
 10
3.967920
 20
3.461040
  0
VERTEX
  8
0
  6
CONTINUOUS
 10
3.973200
 20
3.482160
  0
VERTEX
  8
0
  6
CONTINUOUS
 10
3.980240
 20
3.501960
  0
VERTEX
  8
0
  6
CONTINUOUS
 10
3.989040
 20
3.520880
  0
VERTEX
  8
0
  6
CONTINUOUS
 10
3.999600
 20
3.538920
  0
VERTEX
  8
0
  6
CONTINUOUS
 10
4.025560
 20
3.570600
  0
VERTEX
  8
0
  6
CONTINUOUS
 10
4.040080
 20
3.584240
  0
VERTEX
  8
0
  6
CONTINUOUS
 10
4.073080
 20
3.607560
  0
VERTEX
  8
0
  6
CONTINUOUS
 10
4.091120
 20
3.616800
  0
VERTEX
  8
0
  6
CONTINUOUS
 10
4.128960
 20
3.630440
  0
VERTEX
  8
0
  6
CONTINUOUS
 10
4.148760
 20
3.634840
  0
VERTEX
  8
0
  6
CONTINUOUS
 10
4.169000
 20
3.637480
  0
VERTEX
  8
0
  6
CONTINUOUS
 10
4.189240
 20
3.638360
  0
VERTEX
  8
0
  6
CONTINUOUS
 10
4.209480
 20
3.637480
  0
VERTEX
  8
0
  6
CONTINUOUS
 10
4.229720
 20
3.634400
  0
VERTEX
  8
0
  6
CONTINUOUS
 10
4.249520
 20
3.629560
  0
VERTEX
  8
0
  6
CONTINUOUS
 10
4.269320
 20
3.622960
  0
VERTEX
  8
0
  6
CONTINUOUS
 10
4.288680
 20
3.613720
  0
VERTEX
  8
0
  6
CONTINUOUS
 10
4.307160
 20
3.602720
  0
VERTEX
  8
0
  6
CONTINUOUS
 10
4.334000
 20
3.582040
  0
VERTEX
  8
0
  6
CONTINUOUS
 10
4.358640
 20
3.556520
  0
VERTEX
  8
0
  6
CONTINUOUS
 10
4.380200
 20
3.525280
  0
VERTEX
  8
0
  6
CONTINUOUS
 10
4.399560
 20
3.489200
  0
VERTEX
  8
0
  6
CONTINUOUS
 10
4.414960
 20
3.446960
  0
VERTEX
  8
0
  6
CONTINUOUS
 10
4.426400
 20
3.399440
  0
VERTEX
  8
0
  6
CONTINUOUS
 10
4.530240
 20
3.399440
  0
VERTEX
  8
0
  6
CONTINUOUS
 10
4.532440
 20
3.369080
  0
VERTEX
  8
0
  6
CONTINUOUS
 10
4.538160
 20
3.340480
  0
VERTEX
  8
0
  6
CONTINUOUS
 10
4.547400
 20
3.313640
  0
VERTEX
  8
0
  6
CONTINUOUS
 10
4.560160
 20
3.289000
  0
VERTEX
  8
0
  6
CONTINUOUS
 10
4.583920
 20
3.257320
  0
VERTEX
  8
0
  6
CONTINUOUS
 10
4.602840
 20
3.239280
  0
VERTEX
  8
0
  6
CONTINUOUS
 10
4.623520
 20
3.224760
  0
VERTEX
  8
0
  6
CONTINUOUS
 10
4.645960
 20
3.213760
  0
VERTEX
  8
0
  6
CONTINUOUS
 10
4.669280
 20
3.206720
  0
VERTEX
  8
0
  6
CONTINUOUS
 10
4.693480
 20
3.203200
  0
VERTEX
  8
0
  6
CONTINUOUS
 10
4.718120
 20
3.204080
  0
VERTEX
  8
0
  6
CONTINUOUS
 10
4.742760
 20
3.209800
  0
VERTEX
  8
0
  6
CONTINUOUS
 10
4.766960
 20
3.219920
  0
VERTEX
  8
0
  6
CONTINUOUS
 10
4.790720
 20
3.235320
  0
VERTEX
  8
0
  6
CONTINUOUS
 10
4.802600
 20
3.245000
  0
VERTEX
  8
0
  6
CONTINUOUS
 10
4.824600
 20
3.268760
  0
VERTEX
  8
0
  6
CONTINUOUS
 10
4.931520
 20
3.268760
  0
VERTEX
  8
0
  6
CONTINUOUS
 10
4.936800
 20
3.292960
  0
VERTEX
  8
0
  6
CONTINUOUS
 10
4.945160
 20
3.314080
  0
VERTEX
  8
0
  6
CONTINUOUS
 10
4.962320
 20
3.338720
  0
VERTEX
  8
0
  6
CONTINUOUS
 10
4.983880
 20
3.355440
  0
VERTEX
  8
0
  6
CONTINUOUS
 10
4.999280
 20
3.362480
  0
VERTEX
  8
0
  6
CONTINUOUS
 10
5.016000
 20
3.366000
  0
VERTEX
  8
0
  6
CONTINUOUS
 10
5.032280
 20
3.366440
  0
VERTEX
  8
0
  6
CONTINUOUS
 10
5.048560
 20
3.363800
  0
VERTEX
  8
0
  6
CONTINUOUS
 10
5.071880
 20
3.353680
  0
VERTEX
  8
0
  6
CONTINUOUS
 10
5.085520
 20
3.343560
  0
VERTEX
  8
0
  6
CONTINUOUS
 10
5.102680
 20
3.322440
  0
VERTEX
  8
0
  6
CONTINUOUS
 10
5.114120
 20
3.294720
  0
VERTEX
  8
0
  6
CONTINUOUS
 10
5.117640
 20
3.272720
  0
VERTEX
  8
0
  6
CONTINUOUS
 10
5.118080
 20
3.260840
  0
VERTEX
  8
0
  6
CONTINUOUS
 10
5.168240
 20
3.260840
  0
VERTEX
  8
0
  6
CONTINUOUS
 10
5.170440
 20
3.285480
  0
VERTEX
  8
0
  6
CONTINUOUS
 10
5.176160
 20
3.306600
  0
VERTEX
  8
0
  6
CONTINUOUS
 10
5.184960
 20
3.324640
  0
VERTEX
  8
0
  6
CONTINUOUS
 10
5.196400
 20
3.339600
  0
VERTEX
  8
0
  6
CONTINUOUS
 10
5.217520
 20
3.355880
  0
VERTEX
  8
0
  6
CONTINUOUS
 10
5.241280
 20
3.364680
  0
VERTEX
  8
0
  6
CONTINUOUS
 10
5.257560
 20
3.366000
  0
VERTEX
  8
0
  6
CONTINUOUS
 10
5.274280
 20
3.364680
  0
VERTEX
  8
0
  6
CONTINUOUS
 10
5.298040
 20
3.355440
  0
VERTEX
  8
0
  6
CONTINUOUS
 10
5.318720
 20
3.339160
  0
VERTEX
  8
0
  6
CONTINUOUS
 10
5.330160
 20
3.323760
  0
VERTEX
  8
0
  6
CONTINUOUS
 10
5.338960
 20
3.304400
  0
VERTEX
  8
0
  6
CONTINUOUS
 10
5.344240
 20
3.281960
  0
VERTEX
  8
0
  6
CONTINUOUS
 10
5.346000
 20
3.269640
  0
VERTEX
  8
0
  6
CONTINUOUS
 10
5.346440
 20
3.256000
  0
VERTEX
  8
0
  6
CONTINUOUS
 10
5.459080
 20
3.256000
  0
VERTEX
  8
0
  6
CONTINUOUS
 10
5.465680
 20
3.212880
  0
VERTEX
  8
0
  6
CONTINUOUS
 10
5.474920
 20
3.175920
  0
VERTEX
  8
0
  6
CONTINUOUS
 10
5.480640
 20
3.159640
  0
VERTEX
  8
0
  6
CONTINUOUS
 10
5.497800
 20
3.131920
  0
VERTEX
  8
0
  6
CONTINUOUS
 10
5.516280
 20
3.114760
  0
VERTEX
  8
0
  6
CONTINUOUS
 10
5.540920
 20
3.101560
  0
VERTEX
  8
0
  6
CONTINUOUS
 10
5.572600
 20
3.091440
  0
VERTEX
  8
0
  6
CONTINUOUS
 10
5.612640
 20
3.085280
  0
VERTEX
  8
0
  6
CONTINUOUS
 10
5.662360
 20
3.082640
  0
VERTEX
  8
0
  6
CONTINUOUS
 10
5.722200
 20
3.083520
  0
VERTEX
  8
0
  6
CONTINUOUS
 10
5.722200
 20
2.947560
  0
VERTEX
  8
0
  6
CONTINUOUS
 10
3.867600
 20
2.947560
  0
VERTEX
  8
0
  6
CONTINUOUS
 10
3.868040
 20
3.415280
  0
SEQEND
  8
0
  0
SOLID
  8
0
 62
    15
 10
4.983000
 20
1.464320
 11
4.983880
 21
2.210120
 12
4.998840
 22
1.471360
 13
4.999720
 23
2.217160
  0
POLYLINE
  8
0
  6
CONTINUOUS
 66
     1
 40
0.000000
 41
0.000000
  0
VERTEX
  8
0
  6
CONTINUOUS
 10
4.983000
 20
1.464320
  0
VERTEX
  8
0
  6
CONTINUOUS
 10
4.983880
 20
2.210120
  0
VERTEX
  8
0
  6
CONTINUOUS
 10
4.999720
 20
2.217160
  0
VERTEX
  8
0
  6
CONTINUOUS
 10
4.998840
 20
1.471360
  0
VERTEX
  8
0
  6
CONTINUOUS
 10
4.983000
 20
1.464320
  0
SEQEND
  8
0
  0
SOLID
  8
0
 62
    15
 10
3.963520
 20
1.524160
 11
3.964400
 21
2.269960
 12
3.967480
 22
1.569920
 13
3.968360
 23
2.315720
  0
POLYLINE
  8
0
  6
CONTINUOUS
 66
     1
 40
0.000000
 41
0.000000
  0
VERTEX
  8
0
  6
CONTINUOUS
 10
3.963520
 20
1.524160
  0
VERTEX
  8
0
  6
CONTINUOUS
 10
3.964400
 20
2.269960
  0
VERTEX
  8
0
  6
CONTINUOUS
 10
3.968360
 20
2.315720
  0
VERTEX
  8
0
  6
CONTINUOUS
 10
3.967480
 20
1.569920
  0
VERTEX
  8
0
  6
CONTINUOUS
 10
3.963520
 20
1.524160
  0
SEQEND
  8
0
  0
SOLID
  8
0
 62
    15
 10
3.967480
 20
1.569920
 11
3.968360
 21
2.315720
 12
3.979800
 22
1.611280
 13
3.980680
 23
2.357080
  0
POLYLINE
  8
0
  6
CONTINUOUS
 66
     1
 40
0.000000
 41
0.000000
  0
VERTEX
  8
0
  6
CONTINUOUS
 10
3.967480
 20
1.569920
  0
VERTEX
  8
0
  6
CONTINUOUS
 10
3.968360
 20
2.315720
  0
VERTEX
  8
0
  6
CONTINUOUS
 10
3.980680
 20
2.357080
  0
VERTEX
  8
0
  6
CONTINUOUS
 10
3.979800
 20
1.611280
  0
VERTEX
  8
0
  6
CONTINUOUS
 10
3.967480
 20
1.569920
  0
SEQEND
  8
0
  0
SOLID
  8
0
 62
    15
 10
3.979800
 20
1.611280
 11
3.980680
 21
2.357080
 12
3.999160
 22
1.647800
 13
4.000040
 23
2.393600
  0
POLYLINE
  8
0
  6
CONTINUOUS
 66
     1
 40
0.000000
 41
0.000000
  0
VERTEX
  8
0
  6
CONTINUOUS
 10
3.979800
 20
1.611280
  0
VERTEX
  8
0
  6
CONTINUOUS
 10
3.980680
 20
2.357080
  0
VERTEX
  8
0
  6
CONTINUOUS
 10
4.000040
 20
2.393600
  0
VERTEX
  8
0
  6
CONTINUOUS
 10
3.999160
 20
1.647800
  0
VERTEX
  8
0
  6
CONTINUOUS
 10
3.979800
 20
1.611280
  0
SEQEND
  8
0
  0
SOLID
  8
0
 62
    15
 10
3.999160
 20
1.647800
 11
4.000040
 21
2.393600
 12
4.025120
 22
1.679480
 13
4.026000
 23
2.425280
  0
POLYLINE
  8
0
  6
CONTINUOUS
 66
     1
 40
0.000000
 41
0.000000
  0
VERTEX
  8
0
  6
CONTINUOUS
 10
3.999160
 20
1.647800
  0
VERTEX
  8
0
  6
CONTINUOUS
 10
4.000040
 20
2.393600
  0
VERTEX
  8
0
  6
CONTINUOUS
 10
4.026000
 20
2.425280
  0
VERTEX
  8
0
  6
CONTINUOUS
 10
4.025120
 20
1.679480
  0
VERTEX
  8
0
  6
CONTINUOUS
 10
3.999160
 20
1.647800
  0
SEQEND
  8
0
  0
SOLID
  8
0
 62
    15
 10
4.025120
 20
1.679480
 11
4.026000
 21
2.425280
 12
4.055920
 22
1.705440
 13
4.056800
 23
2.451240
  0
POLYLINE
  8
0
  6
CONTINUOUS
 66
     1
 40
0.000000
 41
0.000000
  0
VERTEX
  8
0
  6
CONTINUOUS
 10
4.025120
 20
1.679480
  0
VERTEX
  8
0
  6
CONTINUOUS
 10
4.026000
 20
2.425280
  0
VERTEX
  8
0
  6
CONTINUOUS
 10
4.056800
 20
2.451240
  0
VERTEX
  8
0
  6
CONTINUOUS
 10
4.055920
 20
1.705440
  0
VERTEX
  8
0
  6
CONTINUOUS
 10
4.025120
 20
1.679480
  0
SEQEND
  8
0
  0
SOLID
  8
0
 62
    15
 10
4.055920
 20
1.705440
 11
4.056800
 21
2.451240
 12
4.090680
 22
1.725680
 13
4.091560
 23
2.471480
  0
POLYLINE
  8
0
  6
CONTINUOUS
 66
     1
 40
0.000000
 41
0.000000
  0
VERTEX
  8
0
  6
CONTINUOUS
 10
4.055920
 20
1.705440
  0
VERTEX
  8
0
  6
CONTINUOUS
 10
4.056800
 20
2.451240
  0
VERTEX
  8
0
  6
CONTINUOUS
 10
4.091560
 20
2.471480
  0
VERTEX
  8
0
  6
CONTINUOUS
 10
4.090680
 20
1.725680
  0
VERTEX
  8
0
  6
CONTINUOUS
 10
4.055920
 20
1.705440
  0
SEQEND
  8
0
  0
SOLID
  8
0
 62
    15
 10
4.090680
 20
1.725680
 11
4.091560
 21
2.471480
 12
4.128520
 22
1.739760
 13
4.129400
 23
2.485560
  0
POLYLINE
  8
0
  6
CONTINUOUS
 66
     1
 40
0.000000
 41
0.000000
  0
VERTEX
  8
0
  6
CONTINUOUS
 10
4.090680
 20
1.725680
  0
VERTEX
  8
0
  6
CONTINUOUS
 10
4.091560
 20
2.471480
  0
VERTEX
  8
0
  6
CONTINUOUS
 10
4.129400
 20
2.485560
  0
VERTEX
  8
0
  6
CONTINUOUS
 10
4.128520
 20
1.739760
  0
VERTEX
  8
0
  6
CONTINUOUS
 10
4.090680
 20
1.725680
  0
SEQEND
  8
0
  0
SOLID
  8
0
 62
    15
 10
4.128520
 20
1.739760
 11
4.129400
 21
2.485560
 12
4.168560
 22
1.746800
 13
4.169000
 23
2.492600
  0
POLYLINE
  8
0
  6
CONTINUOUS
 66
     1
 40
0.000000
 41
0.000000
  0
VERTEX
  8
0
  6
CONTINUOUS
 10
4.128520
 20
1.739760
  0
VERTEX
  8
0
  6
CONTINUOUS
 10
4.129400
 20
2.485560
  0
VERTEX
  8
0
  6
CONTINUOUS
 10
4.169000
 20
2.492600
  0
VERTEX
  8
0
  6
CONTINUOUS
 10
4.168560
 20
1.746800
  0
VERTEX
  8
0
  6
CONTINUOUS
 10
4.128520
 20
1.739760
  0
SEQEND
  8
0
  0
SOLID
  8
0
 62
    15
 10
4.168560
 20
1.746800
 11
4.169000
 21
2.492600
 12
4.209040
 22
1.746800
 13
4.209920
 23
2.492600
  0
POLYLINE
  8
0
  6
CONTINUOUS
 66
     1
 40
0.000000
 41
0.000000
  0
VERTEX
  8
0
  6
CONTINUOUS
 10
4.168560
 20
1.746800
  0
VERTEX
  8
0
  6
CONTINUOUS
 10
4.169000
 20
2.492600
  0
VERTEX
  8
0
  6
CONTINUOUS
 10
4.209920
 20
2.492600
  0
VERTEX
  8
0
  6
CONTINUOUS
 10
4.209040
 20
1.746800
  0
VERTEX
  8
0
  6
CONTINUOUS
 10
4.168560
 20
1.746800
  0
SEQEND
  8
0
  0
SOLID
  8
0
 62
    15
 10
4.209040
 20
1.746800
 11
4.209920
 21
2.492600
 12
4.249080
 22
1.738880
 13
4.249960
 23
2.484680
  0
POLYLINE
  8
0
  6
CONTINUOUS
 66
     1
 40
0.000000
 41
0.000000
  0
VERTEX
  8
0
  6
CONTINUOUS
 10
4.209040
 20
1.746800
  0
VERTEX
  8
0
  6
CONTINUOUS
 10
4.209920
 20
2.492600
  0
VERTEX
  8
0
  6
CONTINUOUS
 10
4.249960
 20
2.484680
  0
VERTEX
  8
0
  6
CONTINUOUS
 10
4.249080
 20
1.738880
  0
VERTEX
  8
0
  6
CONTINUOUS
 10
4.209040
 20
1.746800
  0
SEQEND
  8
0
  0
SOLID
  8
0
 62
    15
 10
4.249080
 20
1.738880
 11
4.249960
 21
2.484680
 12
4.288240
 22
1.723040
 13
4.289120
 23
2.468840
  0
POLYLINE
  8
0
  6
CONTINUOUS
 66
     1
 40
0.000000
 41
0.000000
  0
VERTEX
  8
0
  6
CONTINUOUS
 10
4.249080
 20
1.738880
  0
VERTEX
  8
0
  6
CONTINUOUS
 10
4.249960
 20
2.484680
  0
VERTEX
  8
0
  6
CONTINUOUS
 10
4.289120
 20
2.468840
  0
VERTEX
  8
0
  6
CONTINUOUS
 10
4.288240
 20
1.723040
  0
VERTEX
  8
0
  6
CONTINUOUS
 10
4.249080
 20
1.738880
  0
SEQEND
  8
0
  0
SOLID
  8
0
 62
    15
 10
4.288240
 20
1.723040
 11
4.289120
 21
2.468840
 12
4.324760
 22
1.698840
 13
4.325640
 23
2.444640
  0
POLYLINE
  8
0
  6
CONTINUOUS
 66
     1
 40
0.000000
 41
0.000000
  0
VERTEX
  8
0
  6
CONTINUOUS
 10
4.288240
 20
1.723040
  0
VERTEX
  8
0
  6
CONTINUOUS
 10
4.289120
 20
2.468840
  0
VERTEX
  8
0
  6
CONTINUOUS
 10
4.325640
 20
2.444640
  0
VERTEX
  8
0
  6
CONTINUOUS
 10
4.324760
 20
1.698840
  0
VERTEX
  8
0
  6
CONTINUOUS
 10
4.288240
 20
1.723040
  0
SEQEND
  8
0
  0
SOLID
  8
0
 62
    15
 10
4.324760
 20
1.698840
 11
4.325640
 21
2.444640
 12
4.358200
 22
1.665840
 13
4.359080
 23
2.411200
  0
POLYLINE
  8
0
  6
CONTINUOUS
 66
     1
 40
0.000000
 41
0.000000
  0
VERTEX
  8
0
  6
CONTINUOUS
 10
4.324760
 20
1.698840
  0
VERTEX
  8
0
  6
CONTINUOUS
 10
4.325640
 20
2.444640
  0
VERTEX
  8
0
  6
CONTINUOUS
 10
4.359080
 20
2.411200
  0
VERTEX
  8
0
  6
CONTINUOUS
 10
4.358200
 20
1.665840
  0
VERTEX
  8
0
  6
CONTINUOUS
 10
4.324760
 20
1.698840
  0
SEQEND
  8
0
  0
SOLID
  8
0
 62
    15
 10
4.358200
 20
1.665840
 11
4.359080
 21
2.411200
 12
4.386800
 22
1.623160
 13
4.387680
 23
2.368960
  0
POLYLINE
  8
0
  6
CONTINUOUS
 66
     1
 40
0.000000
 41
0.000000
  0
VERTEX
  8
0
  6
CONTINUOUS
 10
4.358200
 20
1.665840
  0
VERTEX
  8
0
  6
CONTINUOUS
 10
4.359080
 20
2.411200
  0
VERTEX
  8
0
  6
CONTINUOUS
 10
4.387680
 20
2.368960
  0
VERTEX
  8
0
  6
CONTINUOUS
 10
4.386800
 20
1.623160
  0
VERTEX
  8
0
  6
CONTINUOUS
 10
4.358200
 20
1.665840
  0
SEQEND
  8
0
  0
SOLID
  8
0
 62
    15
 10
4.386800
 20
1.623160
 11
4.387680
 21
2.368960
 12
4.409680
 22
1.570800
 13
4.410560
 23
2.316600
  0
POLYLINE
  8
0
  6
CONTINUOUS
 66
     1
 40
0.000000
 41
0.000000
  0
VERTEX
  8
0
  6
CONTINUOUS
 10
4.386800
 20
1.623160
  0
VERTEX
  8
0
  6
CONTINUOUS
 10
4.387680
 20
2.368960
  0
VERTEX
  8
0
  6
CONTINUOUS
 10
4.410560
 20
2.316600
  0
VERTEX
  8
0
  6
CONTINUOUS
 10
4.409680
 20
1.570800
  0
VERTEX
  8
0
  6
CONTINUOUS
 10
4.386800
 20
1.623160
  0
SEQEND
  8
0
  0
SOLID
  8
0
 62
    15
 10
4.409680
 20
1.570800
 11
4.410560
 21
2.316600
 12
4.425960
 22
1.508320
 13
4.426840
 23
2.254120
  0
POLYLINE
  8
0
  6
CONTINUOUS
 66
     1
 40
0.000000
 41
0.000000
  0
VERTEX
  8
0
  6
CONTINUOUS
 10
4.409680
 20
1.570800
  0
VERTEX
  8
0
  6
CONTINUOUS
 10
4.410560
 20
2.316600
  0
VERTEX
  8
0
  6
CONTINUOUS
 10
4.426840
 20
2.254120
  0
VERTEX
  8
0
  6
CONTINUOUS
 10
4.425960
 20
1.508320
  0
VERTEX
  8
0
  6
CONTINUOUS
 10
4.409680
 20
1.570800
  0
SEQEND
  8
0
  0
SOLID
  8
0
 62
    15
 10
4.425960
 20
1.508320
 11
4.426840
 21
2.254120
 12
4.529800
 22
1.508320
 13
4.530680
 23
2.254120
  0
POLYLINE
  8
0
  6
CONTINUOUS
 66
     1
 40
0.000000
 41
0.000000
  0
VERTEX
  8
0
  6
CONTINUOUS
 10
4.425960
 20
1.508320
  0
VERTEX
  8
0
  6
CONTINUOUS
 10
4.426840
 20
2.254120
  0
VERTEX
  8
0
  6
CONTINUOUS
 10
4.530680
 20
2.254120
  0
VERTEX
  8
0
  6
CONTINUOUS
 10
4.529800
 20
1.508320
  0
VERTEX
  8
0
  6
CONTINUOUS
 10
4.425960
 20
1.508320
  0
SEQEND
  8
0
  0
SOLID
  8
0
 62
    15
 10
4.529800
 20
1.508320
 11
4.530680
 21
2.254120
 12
4.531560
 22
1.477960
 13
4.532440
 23
2.223760
  0
POLYLINE
  8
0
  6
CONTINUOUS
 66
     1
 40
0.000000
 41
0.000000
  0
VERTEX
  8
0
  6
CONTINUOUS
 10
4.529800
 20
1.508320
  0
VERTEX
  8
0
  6
CONTINUOUS
 10
4.530680
 20
2.254120
  0
VERTEX
  8
0
  6
CONTINUOUS
 10
4.532440
 20
2.223760
  0
VERTEX
  8
0
  6
CONTINUOUS
 10
4.531560
 20
1.477960
  0
VERTEX
  8
0
  6
CONTINUOUS
 10
4.529800
 20
1.508320
  0
SEQEND
  8
0
  0
SOLID
  8
0
 62
    15
 10
4.531560
 20
1.477960
 11
4.532440
 21
2.223760
 12
4.537720
 22
1.449360
 13
4.538600
 23
2.195160
  0
POLYLINE
  8
0
  6
CONTINUOUS
 66
     1
 40
0.000000
 41
0.000000
  0
VERTEX
  8
0
  6
CONTINUOUS
 10
4.531560
 20
1.477960
  0
VERTEX
  8
0
  6
CONTINUOUS
 10
4.532440
 20
2.223760
  0
VERTEX
  8
0
  6
CONTINUOUS
 10
4.538600
 20
2.195160
  0
VERTEX
  8
0
  6
CONTINUOUS
 10
4.537720
 20
1.449360
  0
VERTEX
  8
0
  6
CONTINUOUS
 10
4.531560
 20
1.477960
  0
SEQEND
  8
0
  0
SOLID
  8
0
 62
    15
 10
4.537720
 20
1.449360
 11
4.538600
 21
2.195160
 12
4.546960
 22
1.422520
 13
4.547840
 23
2.168320
  0
POLYLINE
  8
0
  6
CONTINUOUS
 66
     1
 40
0.000000
 41
0.000000
  0
VERTEX
  8
0
  6
CONTINUOUS
 10
4.537720
 20
1.449360
  0
VERTEX
  8
0
  6
CONTINUOUS
 10
4.538600
 20
2.195160
  0
VERTEX
  8
0
  6
CONTINUOUS
 10
4.547840
 20
2.168320
  0
VERTEX
  8
0
  6
CONTINUOUS
 10
4.546960
 20
1.422520
  0
VERTEX
  8
0
  6
CONTINUOUS
 10
4.537720
 20
1.449360
  0
SEQEND
  8
0
  0
SOLID
  8
0
 62
    15
 10
4.546960
 20
1.422520
 11
4.547840
 21
2.168320
 12
4.559720
 22
1.398320
 13
4.560600
 23
2.144120
  0
POLYLINE
  8
0
  6
CONTINUOUS
 66
     1
 40
0.000000
 41
0.000000
  0
VERTEX
  8
0
  6
CONTINUOUS
 10
4.546960
 20
1.422520
  0
VERTEX
  8
0
  6
CONTINUOUS
 10
4.547840
 20
2.168320
  0
VERTEX
  8
0
  6
CONTINUOUS
 10
4.560600
 20
2.144120
  0
VERTEX
  8
0
  6
CONTINUOUS
 10
4.559720
 20
1.398320
  0
VERTEX
  8
0
  6
CONTINUOUS
 10
4.546960
 20
1.422520
  0
SEQEND
  8
0
  0
SOLID
  8
0
 62
    15
 10
4.559720
 20
1.398320
 11
4.560600
 21
2.144120
 12
4.575120
 22
1.376320
 13
4.576000
 23
2.122120
  0
POLYLINE
  8
0
  6
CONTINUOUS
 66
     1
 40
0.000000
 41
0.000000
  0
VERTEX
  8
0
  6
CONTINUOUS
 10
4.559720
 20
1.398320
  0
VERTEX
  8
0
  6
CONTINUOUS
 10
4.560600
 20
2.144120
  0
VERTEX
  8
0
  6
CONTINUOUS
 10
4.576000
 20
2.122120
  0
VERTEX
  8
0
  6
CONTINUOUS
 10
4.575120
 20
1.376320
  0
VERTEX
  8
0
  6
CONTINUOUS
 10
4.559720
 20
1.398320
  0
SEQEND
  8
0
  0
SOLID
  8
0
 62
    15
 10
4.575120
 20
1.376320
 11
4.576000
 21
2.122120
 12
4.592720
 22
1.356960
 13
4.593600
 23
2.102760
  0
POLYLINE
  8
0
  6
CONTINUOUS
 66
     1
 40
0.000000
 41
0.000000
  0
VERTEX
  8
0
  6
CONTINUOUS
 10
4.575120
 20
1.376320
  0
VERTEX
  8
0
  6
CONTINUOUS
 10
4.576000
 20
2.122120
  0
VERTEX
  8
0
  6
CONTINUOUS
 10
4.593600
 20
2.102760
  0
VERTEX
  8
0
  6
CONTINUOUS
 10
4.592720
 20
1.356960
  0
VERTEX
  8
0
  6
CONTINUOUS
 10
4.575120
 20
1.376320
  0
SEQEND
  8
0
  0
SOLID
  8
0
 62
    15
 10
4.592720
 20
1.356960
 11
4.593600
 21
2.102760
 12
4.612520
 22
1.340680
 13
4.613400
 23
2.086480
  0
POLYLINE
  8
0
  6
CONTINUOUS
 66
     1
 40
0.000000
 41
0.000000
  0
VERTEX
  8
0
  6
CONTINUOUS
 10
4.592720
 20
1.356960
  0
VERTEX
  8
0
  6
CONTINUOUS
 10
4.593600
 20
2.102760
  0
VERTEX
  8
0
  6
CONTINUOUS
 10
4.613400
 20
2.086480
  0
VERTEX
  8
0
  6
CONTINUOUS
 10
4.612520
 20
1.340680
  0
VERTEX
  8
0
  6
CONTINUOUS
 10
4.592720
 20
1.356960
  0
SEQEND
  8
0
  0
SOLID
  8
0
 62
    15
 10
4.612520
 20
1.340680
 11
4.613400
 21
2.086480
 12
4.634080
 22
1.327920
 13
4.634960
 23
2.073720
  0
POLYLINE
  8
0
  6
CONTINUOUS
 66
     1
 40
0.000000
 41
0.000000
  0
VERTEX
  8
0
  6
CONTINUOUS
 10
4.612520
 20
1.340680
  0
VERTEX
  8
0
  6
CONTINUOUS
 10
4.613400
 20
2.086480
  0
VERTEX
  8
0
  6
CONTINUOUS
 10
4.634960
 20
2.073720
  0
VERTEX
  8
0
  6
CONTINUOUS
 10
4.634080
 20
1.327920
  0
VERTEX
  8
0
  6
CONTINUOUS
 10
4.612520
 20
1.340680
  0
SEQEND
  8
0
  0
SOLID
  8
0
 62
    15
 10
4.634080
 20
1.327920
 11
4.634960
 21
2.073720
 12
4.656960
 22
1.318680
 13
4.657840
 23
2.064480
  0
POLYLINE
  8
0
  6
CONTINUOUS
 66
     1
 40
0.000000
 41
0.000000
  0
VERTEX
  8
0
  6
CONTINUOUS
 10
4.634080
 20
1.327920
  0
VERTEX
  8
0
  6
CONTINUOUS
 10
4.634960
 20
2.073720
  0
VERTEX
  8
0
  6
CONTINUOUS
 10
4.657840
 20
2.064480
  0
VERTEX
  8
0
  6
CONTINUOUS
 10
4.656960
 20
1.318680
  0
VERTEX
  8
0
  6
CONTINUOUS
 10
4.634080
 20
1.327920
  0
SEQEND
  8
0
  0
SOLID
  8
0
 62
    15
 10
4.656960
 20
1.318680
 11
4.657840
 21
2.064480
 12
4.680720
 22
1.313400
 13
4.681600
 23
2.059200
  0
POLYLINE
  8
0
  6
CONTINUOUS
 66
     1
 40
0.000000
 41
0.000000
  0
VERTEX
  8
0
  6
CONTINUOUS
 10
4.656960
 20
1.318680
  0
VERTEX
  8
0
  6
CONTINUOUS
 10
4.657840
 20
2.064480
  0
VERTEX
  8
0
  6
CONTINUOUS
 10
4.681600
 20
2.059200
  0
VERTEX
  8
0
  6
CONTINUOUS
 10
4.680720
 20
1.313400
  0
VERTEX
  8
0
  6
CONTINUOUS
 10
4.656960
 20
1.318680
  0
SEQEND
  8
0
  0
SOLID
  8
0
 62
    15
 10
4.680720
 20
1.313400
 11
4.681600
 21
2.059200
 12
4.705360
 22
1.312080
 13
4.706240
 23
2.057880
  0
POLYLINE
  8
0
  6
CONTINUOUS
 66
     1
 40
0.000000
 41
0.000000
  0
VERTEX
  8
0
  6
CONTINUOUS
 10
4.680720
 20
1.313400
  0
VERTEX
  8
0
  6
CONTINUOUS
 10
4.681600
 20
2.059200
  0
VERTEX
  8
0
  6
CONTINUOUS
 10
4.706240
 20
2.057880
  0
VERTEX
  8
0
  6
CONTINUOUS
 10
4.705360
 20
1.312080
  0
VERTEX
  8
0
  6
CONTINUOUS
 10
4.680720
 20
1.313400
  0
SEQEND
  8
0
  0
SOLID
  8
0
 62
    15
 10
4.705360
 20
1.312080
 11
4.706240
 21
2.057880
 12
4.730000
 22
1.315600
 13
4.730880
 23
2.060960
  0
POLYLINE
  8
0
  6
CONTINUOUS
 66
     1
 40
0.000000
 41
0.000000
  0
VERTEX
  8
0
  6
CONTINUOUS
 10
4.705360
 20
1.312080
  0
VERTEX
  8
0
  6
CONTINUOUS
 10
4.706240
 20
2.057880
  0
VERTEX
  8
0
  6
CONTINUOUS
 10
4.730880
 20
2.060960
  0
VERTEX
  8
0
  6
CONTINUOUS
 10
4.730000
 20
1.315600
  0
VERTEX
  8
0
  6
CONTINUOUS
 10
4.705360
 20
1.312080
  0
SEQEND
  8
0
  0
SOLID
  8
0
 62
    15
 10
4.730000
 20
1.315600
 11
4.730880
 21
2.060960
 12
4.754640
 22
1.323080
 13
4.755520
 23
2.068880
  0
POLYLINE
  8
0
  6
CONTINUOUS
 66
     1
 40
0.000000
 41
0.000000
  0
VERTEX
  8
0
  6
CONTINUOUS
 10
4.730000
 20
1.315600
  0
VERTEX
  8
0
  6
CONTINUOUS
 10
4.730880
 20
2.060960
  0
VERTEX
  8
0
  6
CONTINUOUS
 10
4.755520
 20
2.068880
  0
VERTEX
  8
0
  6
CONTINUOUS
 10
4.754640
 20
1.323080
  0
VERTEX
  8
0
  6
CONTINUOUS
 10
4.730000
 20
1.315600
  0
SEQEND
  8
0
  0
SOLID
  8
0
 62
    15
 10
4.754640
 20
1.323080
 11
4.755520
 21
2.068880
 12
4.778400
 22
1.335840
 13
4.779280
 23
2.081640
  0
POLYLINE
  8
0
  6
CONTINUOUS
 66
     1
 40
0.000000
 41
0.000000
  0
VERTEX
  8
0
  6
CONTINUOUS
 10
4.754640
 20
1.323080
  0
VERTEX
  8
0
  6
CONTINUOUS
 10
4.755520
 20
2.068880
  0
VERTEX
  8
0
  6
CONTINUOUS
 10
4.779280
 20
2.081640
  0
VERTEX
  8
0
  6
CONTINUOUS
 10
4.778400
 20
1.335840
  0
VERTEX
  8
0
  6
CONTINUOUS
 10
4.754640
 20
1.323080
  0
SEQEND
  8
0
  0
SOLID
  8
0
 62
    15
 10
4.778400
 20
1.335840
 11
4.779280
 21
2.081640
 12
4.801720
 22
1.354320
 13
4.802600
 23
2.100120
  0
POLYLINE
  8
0
  6
CONTINUOUS
 66
     1
 40
0.000000
 41
0.000000
  0
VERTEX
  8
0
  6
CONTINUOUS
 10
4.778400
 20
1.335840
  0
VERTEX
  8
0
  6
CONTINUOUS
 10
4.779280
 20
2.081640
  0
VERTEX
  8
0
  6
CONTINUOUS
 10
4.802600
 20
2.100120
  0
VERTEX
  8
0
  6
CONTINUOUS
 10
4.801720
 20
1.354320
  0
VERTEX
  8
0
  6
CONTINUOUS
 10
4.778400
 20
1.335840
  0
SEQEND
  8
0
  0
SOLID
  8
0
 62
    15
 10
4.801720
 20
1.354320
 11
4.802600
 21
2.100120
 12
4.824160
 22
1.377640
 13
4.825040
 23
2.123440
  0
POLYLINE
  8
0
  6
CONTINUOUS
 66
     1
 40
0.000000
 41
0.000000
  0
VERTEX
  8
0
  6
CONTINUOUS
 10
4.801720
 20
1.354320
  0
VERTEX
  8
0
  6
CONTINUOUS
 10
4.802600
 20
2.100120
  0
VERTEX
  8
0
  6
CONTINUOUS
 10
4.825040
 20
2.123440
  0
VERTEX
  8
0
  6
CONTINUOUS
 10
4.824160
 20
1.377640
  0
VERTEX
  8
0
  6
CONTINUOUS
 10
4.801720
 20
1.354320
  0
SEQEND
  8
0
  0
SOLID
  8
0
 62
    15
 10
4.824160
 20
1.377640
 11
4.825040
 21
2.123440
 12
4.931080
 22
1.377640
 13
4.931960
 23
2.123440
  0
POLYLINE
  8
0
  6
CONTINUOUS
 66
     1
 40
0.000000
 41
0.000000
  0
VERTEX
  8
0
  6
CONTINUOUS
 10
4.824160
 20
1.377640
  0
VERTEX
  8
0
  6
CONTINUOUS
 10
4.825040
 20
2.123440
  0
VERTEX
  8
0
  6
CONTINUOUS
 10
4.931960
 20
2.123440
  0
VERTEX
  8
0
  6
CONTINUOUS
 10
4.931080
 20
1.377640
  0
VERTEX
  8
0
  6
CONTINUOUS
 10
4.824160
 20
1.377640
  0
SEQEND
  8
0
  0
SOLID
  8
0
 62
    15
 10
4.931080
 20
1.377640
 11
4.931960
 21
2.123440
 12
4.936360
 22
1.402280
 13
4.937240
 23
2.148080
  0
POLYLINE
  8
0
  6
CONTINUOUS
 66
     1
 40
0.000000
 41
0.000000
  0
VERTEX
  8
0
  6
CONTINUOUS
 10
4.931080
 20
1.377640
  0
VERTEX
  8
0
  6
CONTINUOUS
 10
4.931960
 20
2.123440
  0
VERTEX
  8
0
  6
CONTINUOUS
 10
4.937240
 20
2.148080
  0
VERTEX
  8
0
  6
CONTINUOUS
 10
4.936360
 20
1.402280
  0
VERTEX
  8
0
  6
CONTINUOUS
 10
4.931080
 20
1.377640
  0
SEQEND
  8
0
  0
SOLID
  8
0
 62
    15
 10
4.936360
 20
1.402280
 11
4.937240
 21
2.148080
 12
4.944720
 22
1.422960
 13
4.945600
 23
2.168760
  0
POLYLINE
  8
0
  6
CONTINUOUS
 66
     1
 40
0.000000
 41
0.000000
  0
VERTEX
  8
0
  6
CONTINUOUS
 10
4.936360
 20
1.402280
  0
VERTEX
  8
0
  6
CONTINUOUS
 10
4.937240
 20
2.148080
  0
VERTEX
  8
0
  6
CONTINUOUS
 10
4.945600
 20
2.168760
  0
VERTEX
  8
0
  6
CONTINUOUS
 10
4.944720
 20
1.422960
  0
VERTEX
  8
0
  6
CONTINUOUS
 10
4.936360
 20
1.402280
  0
SEQEND
  8
0
  0
SOLID
  8
0
 62
    15
 10
4.944720
 20
1.422960
 11
4.945600
 21
2.168760
 12
4.955720
 22
1.440120
 13
4.956600
 23
2.185920
  0
POLYLINE
  8
0
  6
CONTINUOUS
 66
     1
 40
0.000000
 41
0.000000
  0
VERTEX
  8
0
  6
CONTINUOUS
 10
4.944720
 20
1.422960
  0
VERTEX
  8
0
  6
CONTINUOUS
 10
4.945600
 20
2.168760
  0
VERTEX
  8
0
  6
CONTINUOUS
 10
4.956600
 20
2.185920
  0
VERTEX
  8
0
  6
CONTINUOUS
 10
4.955720
 20
1.440120
  0
VERTEX
  8
0
  6
CONTINUOUS
 10
4.944720
 20
1.422960
  0
SEQEND
  8
0
  0
SOLID
  8
0
 62
    15
 10
4.955720
 20
1.440120
 11
4.956600
 21
2.185920
 12
4.968480
 22
1.453760
 13
4.969360
 23
2.199560
  0
POLYLINE
  8
0
  6
CONTINUOUS
 66
     1
 40
0.000000
 41
0.000000
  0
VERTEX
  8
0
  6
CONTINUOUS
 10
4.955720
 20
1.440120
  0
VERTEX
  8
0
  6
CONTINUOUS
 10
4.956600
 20
2.185920
  0
VERTEX
  8
0
  6
CONTINUOUS
 10
4.969360
 20
2.199560
  0
VERTEX
  8
0
  6
CONTINUOUS
 10
4.968480
 20
1.453760
  0
VERTEX
  8
0
  6
CONTINUOUS
 10
4.955720
 20
1.440120
  0
SEQEND
  8
0
  0
SOLID
  8
0
 62
    15
 10
4.968480
 20
1.453760
 11
4.969360
 21
2.199560
 12
4.983000
 22
1.464320
 13
4.983880
 23
2.210120
  0
POLYLINE
  8
0
  6
CONTINUOUS
 66
     1
 40
0.000000
 41
0.000000
  0
VERTEX
  8
0
  6
CONTINUOUS
 10
4.968480
 20
1.453760
  0
VERTEX
  8
0
  6
CONTINUOUS
 10
4.969360
 20
2.199560
  0
VERTEX
  8
0
  6
CONTINUOUS
 10
4.983880
 20
2.210120
  0
VERTEX
  8
0
  6
CONTINUOUS
 10
4.983000
 20
1.464320
  0
VERTEX
  8
0
  6
CONTINUOUS
 10
4.968480
 20
1.453760
  0
SEQEND
  8
0
  0
SOLID
  8
0
 62
    15
 10
3.867600
 20
1.524160
 11
3.868480
 21
2.269960
 12
3.963520
 22
1.524160
 13
3.964400
 23
2.269960
  0
POLYLINE
  8
0
  6
CONTINUOUS
 66
     1
 40
0.000000
 41
0.000000
  0
VERTEX
  8
0
  6
CONTINUOUS
 10
3.867600
 20
1.524160
  0
VERTEX
  8
0
  6
CONTINUOUS
 10
3.868480
 20
2.269960
  0
VERTEX
  8
0
  6
CONTINUOUS
 10
3.964400
 20
2.269960
  0
VERTEX
  8
0
  6
CONTINUOUS
 10
3.963520
 20
1.524160
  0
VERTEX
  8
0
  6
CONTINUOUS
 10
3.867600
 20
1.524160
  0
SEQEND
  8
0
  0
SOLID
  8
0
 62
    15
 10
4.998840
 20
1.471360
 11
4.999720
 21
2.217160
 12
5.031840
 22
1.475320
 13
5.032720
 23
2.221120
  0
POLYLINE
  8
0
  6
CONTINUOUS
 66
     1
 40
0.000000
 41
0.000000
  0
VERTEX
  8
0
  6
CONTINUOUS
 10
4.998840
 20
1.471360
  0
VERTEX
  8
0
  6
CONTINUOUS
 10
4.999720
 20
2.217160
  0
VERTEX
  8
0
  6
CONTINUOUS
 10
5.032720
 20
2.221120
  0
VERTEX
  8
0
  6
CONTINUOUS
 10
5.031840
 20
1.475320
  0
VERTEX
  8
0
  6
CONTINUOUS
 10
4.998840
 20
1.471360
  0
SEQEND
  8
0
  0
SOLID
  8
0
 62
    15
 10
5.031840
 20
1.475320
 11
5.032720
 21
2.221120
 12
5.063960
 22
1.466960
 13
5.064840
 23
2.212760
  0
POLYLINE
  8
0
  6
CONTINUOUS
 66
     1
 40
0.000000
 41
0.000000
  0
VERTEX
  8
0
  6
CONTINUOUS
 10
5.031840
 20
1.475320
  0
VERTEX
  8
0
  6
CONTINUOUS
 10
5.032720
 20
2.221120
  0
VERTEX
  8
0
  6
CONTINUOUS
 10
5.064840
 20
2.212760
  0
VERTEX
  8
0
  6
CONTINUOUS
 10
5.063960
 20
1.466960
  0
VERTEX
  8
0
  6
CONTINUOUS
 10
5.031840
 20
1.475320
  0
SEQEND
  8
0
  0
SOLID
  8
0
 62
    15
 10
5.063960
 20
1.466960
 11
5.064840
 21
2.212760
 12
5.078480
 22
1.458160
 13
5.079360
 23
2.203960
  0
POLYLINE
  8
0
  6
CONTINUOUS
 66
     1
 40
0.000000
 41
0.000000
  0
VERTEX
  8
0
  6
CONTINUOUS
 10
5.063960
 20
1.466960
  0
VERTEX
  8
0
  6
CONTINUOUS
 10
5.064840
 20
2.212760
  0
VERTEX
  8
0
  6
CONTINUOUS
 10
5.079360
 20
2.203960
  0
VERTEX
  8
0
  6
CONTINUOUS
 10
5.078480
 20
1.458160
  0
VERTEX
  8
0
  6
CONTINUOUS
 10
5.063960
 20
1.466960
  0
SEQEND
  8
0
  0
SOLID
  8
0
 62
    15
 10
5.078480
 20
1.458160
 11
5.079360
 21
2.203960
 12
5.091240
 22
1.446280
 13
5.092120
 23
2.192080
  0
POLYLINE
  8
0
  6
CONTINUOUS
 66
     1
 40
0.000000
 41
0.000000
  0
VERTEX
  8
0
  6
CONTINUOUS
 10
5.078480
 20
1.458160
  0
VERTEX
  8
0
  6
CONTINUOUS
 10
5.079360
 20
2.203960
  0
VERTEX
  8
0
  6
CONTINUOUS
 10
5.092120
 20
2.192080
  0
VERTEX
  8
0
  6
CONTINUOUS
 10
5.091240
 20
1.446280
  0
VERTEX
  8
0
  6
CONTINUOUS
 10
5.078480
 20
1.458160
  0
SEQEND
  8
0
  0
SOLID
  8
0
 62
    15
 10
5.091240
 20
1.446280
 11
5.092120
 21
2.192080
 12
5.102240
 22
1.431320
 13
5.103120
 23
2.177120
  0
POLYLINE
  8
0
  6
CONTINUOUS
 66
     1
 40
0.000000
 41
0.000000
  0
VERTEX
  8
0
  6
CONTINUOUS
 10
5.091240
 20
1.446280
  0
VERTEX
  8
0
  6
CONTINUOUS
 10
5.092120
 20
2.192080
  0
VERTEX
  8
0
  6
CONTINUOUS
 10
5.103120
 20
2.177120
  0
VERTEX
  8
0
  6
CONTINUOUS
 10
5.102240
 20
1.431320
  0
VERTEX
  8
0
  6
CONTINUOUS
 10
5.091240
 20
1.446280
  0
SEQEND
  8
0
  0
SOLID
  8
0
 62
    15
 10
5.102240
 20
1.431320
 11
5.103120
 21
2.177120
 12
5.110600
 22
1.413720
 13
5.111040
 23
2.159520
  0
POLYLINE
  8
0
  6
CONTINUOUS
 66
     1
 40
0.000000
 41
0.000000
  0
VERTEX
  8
0
  6
CONTINUOUS
 10
5.102240
 20
1.431320
  0
VERTEX
  8
0
  6
CONTINUOUS
 10
5.103120
 20
2.177120
  0
VERTEX
  8
0
  6
CONTINUOUS
 10
5.111040
 20
2.159520
  0
VERTEX
  8
0
  6
CONTINUOUS
 10
5.110600
 20
1.413720
  0
VERTEX
  8
0
  6
CONTINUOUS
 10
5.102240
 20
1.431320
  0
SEQEND
  8
0
  0
SOLID
  8
0
 62
    15
 10
5.110600
 20
1.413720
 11
5.111040
 21
2.159520
 12
5.115880
 22
1.393040
 13
5.116760
 23
2.138840
  0
POLYLINE
  8
0
  6
CONTINUOUS
 66
     1
 40
0.000000
 41
0.000000
  0
VERTEX
  8
0
  6
CONTINUOUS
 10
5.110600
 20
1.413720
  0
VERTEX
  8
0
  6
CONTINUOUS
 10
5.111040
 20
2.159520
  0
VERTEX
  8
0
  6
CONTINUOUS
 10
5.116760
 20
2.138840
  0
VERTEX
  8
0
  6
CONTINUOUS
 10
5.115880
 20
1.393040
  0
VERTEX
  8
0
  6
CONTINUOUS
 10
5.110600
 20
1.413720
  0
SEQEND
  8
0
  0
SOLID
  8
0
 62
    15
 10
5.115880
 20
1.393040
 11
5.116760
 21
2.138840
 12
5.117640
 22
1.369720
 13
5.118520
 23
2.115520
  0
POLYLINE
  8
0
  6
CONTINUOUS
 66
     1
 40
0.000000
 41
0.000000
  0
VERTEX
  8
0
  6
CONTINUOUS
 10
5.115880
 20
1.393040
  0
VERTEX
  8
0
  6
CONTINUOUS
 10
5.116760
 20
2.138840
  0
VERTEX
  8
0
  6
CONTINUOUS
 10
5.118520
 20
2.115520
  0
VERTEX
  8
0
  6
CONTINUOUS
 10
5.117640
 20
1.369720
  0
VERTEX
  8
0
  6
CONTINUOUS
 10
5.115880
 20
1.393040
  0
SEQEND
  8
0
  0
SOLID
  8
0
 62
    15
 10
5.117640
 20
1.369720
 11
5.118520
 21
2.115520
 12
5.167800
 22
1.369720
 13
5.168680
 23
2.115520
  0
POLYLINE
  8
0
  6
CONTINUOUS
 66
     1
 40
0.000000
 41
0.000000
  0
VERTEX
  8
0
  6
CONTINUOUS
 10
5.117640
 20
1.369720
  0
VERTEX
  8
0
  6
CONTINUOUS
 10
5.118520
 20
2.115520
  0
VERTEX
  8
0
  6
CONTINUOUS
 10
5.168680
 20
2.115520
  0
VERTEX
  8
0
  6
CONTINUOUS
 10
5.167800
 20
1.369720
  0
VERTEX
  8
0
  6
CONTINUOUS
 10
5.117640
 20
1.369720
  0
SEQEND
  8
0
  0
SOLID
  8
0
 62
    15
 10
5.167800
 20
1.369720
 11
5.168680
 21
2.115520
 12
5.170000
 22
1.394360
 13
5.170880
 23
2.140160
  0
POLYLINE
  8
0
  6
CONTINUOUS
 66
     1
 40
0.000000
 41
0.000000
  0
VERTEX
  8
0
  6
CONTINUOUS
 10
5.167800
 20
1.369720
  0
VERTEX
  8
0
  6
CONTINUOUS
 10
5.168680
 20
2.115520
  0
VERTEX
  8
0
  6
CONTINUOUS
 10
5.170880
 20
2.140160
  0
VERTEX
  8
0
  6
CONTINUOUS
 10
5.170000
 20
1.394360
  0
VERTEX
  8
0
  6
CONTINUOUS
 10
5.167800
 20
1.369720
  0
SEQEND
  8
0
  0
SOLID
  8
0
 62
    15
 10
5.170000
 20
1.394360
 11
5.170880
 21
2.140160
 12
5.175720
 22
1.415480
 13
5.176600
 23
2.161280
  0
POLYLINE
  8
0
  6
CONTINUOUS
 66
     1
 40
0.000000
 41
0.000000
  0
VERTEX
  8
0
  6
CONTINUOUS
 10
5.170000
 20
1.394360
  0
VERTEX
  8
0
  6
CONTINUOUS
 10
5.170880
 20
2.140160
  0
VERTEX
  8
0
  6
CONTINUOUS
 10
5.176600
 20
2.161280
  0
VERTEX
  8
0
  6
CONTINUOUS
 10
5.175720
 20
1.415480
  0
VERTEX
  8
0
  6
CONTINUOUS
 10
5.170000
 20
1.394360
  0
SEQEND
  8
0
  0
SOLID
  8
0
 62
    15
 10
5.175720
 20
1.415480
 11
5.176600
 21
2.161280
 12
5.184520
 22
1.433520
 13
5.185400
 23
2.179320
  0
POLYLINE
  8
0
  6
CONTINUOUS
 66
     1
 40
0.000000
 41
0.000000
  0
VERTEX
  8
0
  6
CONTINUOUS
 10
5.175720
 20
1.415480
  0
VERTEX
  8
0
  6
CONTINUOUS
 10
5.176600
 20
2.161280
  0
VERTEX
  8
0
  6
CONTINUOUS
 10
5.185400
 20
2.179320
  0
VERTEX
  8
0
  6
CONTINUOUS
 10
5.184520
 20
1.433520
  0
VERTEX
  8
0
  6
CONTINUOUS
 10
5.175720
 20
1.415480
  0
SEQEND
  8
0
  0
SOLID
  8
0
 62
    15
 10
5.184520
 20
1.433520
 11
5.185400
 21
2.179320
 12
5.195960
 22
1.448480
 13
5.196840
 23
2.194280
  0
POLYLINE
  8
0
  6
CONTINUOUS
 66
     1
 40
0.000000
 41
0.000000
  0
VERTEX
  8
0
  6
CONTINUOUS
 10
5.184520
 20
1.433520
  0
VERTEX
  8
0
  6
CONTINUOUS
 10
5.185400
 20
2.179320
  0
VERTEX
  8
0
  6
CONTINUOUS
 10
5.196840
 20
2.194280
  0
VERTEX
  8
0
  6
CONTINUOUS
 10
5.195960
 20
1.448480
  0
VERTEX
  8
0
  6
CONTINUOUS
 10
5.184520
 20
1.433520
  0
SEQEND
  8
0
  0
SOLID
  8
0
 62
    15
 10
5.195960
 20
1.448480
 11
5.196840
 21
2.194280
 12
5.209600
 22
1.460360
 13
5.210480
 23
2.205720
  0
POLYLINE
  8
0
  6
CONTINUOUS
 66
     1
 40
0.000000
 41
0.000000
  0
VERTEX
  8
0
  6
CONTINUOUS
 10
5.195960
 20
1.448480
  0
VERTEX
  8
0
  6
CONTINUOUS
 10
5.196840
 20
2.194280
  0
VERTEX
  8
0
  6
CONTINUOUS
 10
5.210480
 20
2.205720
  0
VERTEX
  8
0
  6
CONTINUOUS
 10
5.209600
 20
1.460360
  0
VERTEX
  8
0
  6
CONTINUOUS
 10
5.195960
 20
1.448480
  0
SEQEND
  8
0
  0
SOLID
  8
0
 62
    15
 10
5.209600
 20
1.460360
 11
5.210480
 21
2.205720
 12
5.224560
 22
1.468720
 13
5.225440
 23
2.214520
  0
POLYLINE
  8
0
  6
CONTINUOUS
 66
     1
 40
0.000000
 41
0.000000
  0
VERTEX
  8
0
  6
CONTINUOUS
 10
5.209600
 20
1.460360
  0
VERTEX
  8
0
  6
CONTINUOUS
 10
5.210480
 20
2.205720
  0
VERTEX
  8
0
  6
CONTINUOUS
 10
5.225440
 20
2.214520
  0
VERTEX
  8
0
  6
CONTINUOUS
 10
5.224560
 20
1.468720
  0
VERTEX
  8
0
  6
CONTINUOUS
 10
5.209600
 20
1.460360
  0
SEQEND
  8
0
  0
SOLID
  8
0
 62
    15
 10
5.224560
 20
1.468720
 11
5.225440
 21
2.214520
 12
5.240840
 22
1.473560
 13
5.241720
 23
2.219360
  0
POLYLINE
  8
0
  6
CONTINUOUS
 66
     1
 40
0.000000
 41
0.000000
  0
VERTEX
  8
0
  6
CONTINUOUS
 10
5.224560
 20
1.468720
  0
VERTEX
  8
0
  6
CONTINUOUS
 10
5.225440
 20
2.214520
  0
VERTEX
  8
0
  6
CONTINUOUS
 10
5.241720
 20
2.219360
  0
VERTEX
  8
0
  6
CONTINUOUS
 10
5.240840
 20
1.473560
  0
VERTEX
  8
0
  6
CONTINUOUS
 10
5.224560
 20
1.468720
  0
SEQEND
  8
0
  0
SOLID
  8
0
 62
    15
 10
5.240840
 20
1.473560
 11
5.241720
 21
2.219360
 12
5.257120
 22
1.475320
 13
5.258000
 23
2.221120
  0
POLYLINE
  8
0
  6
CONTINUOUS
 66
     1
 40
0.000000
 41
0.000000
  0
VERTEX
  8
0
  6
CONTINUOUS
 10
5.240840
 20
1.473560
  0
VERTEX
  8
0
  6
CONTINUOUS
 10
5.241720
 20
2.219360
  0
VERTEX
  8
0
  6
CONTINUOUS
 10
5.258000
 20
2.221120
  0
VERTEX
  8
0
  6
CONTINUOUS
 10
5.257120
 20
1.475320
  0
VERTEX
  8
0
  6
CONTINUOUS
 10
5.240840
 20
1.473560
  0
SEQEND
  8
0
  0
SOLID
  8
0
 62
    15
 10
5.257120
 20
1.475320
 11
5.258000
 21
2.221120
 12
5.273840
 22
1.473560
 13
5.274720
 23
2.219360
  0
POLYLINE
  8
0
  6
CONTINUOUS
 66
     1
 40
0.000000
 41
0.000000
  0
VERTEX
  8
0
  6
CONTINUOUS
 10
5.257120
 20
1.475320
  0
VERTEX
  8
0
  6
CONTINUOUS
 10
5.258000
 20
2.221120
  0
VERTEX
  8
0
  6
CONTINUOUS
 10
5.274720
 20
2.219360
  0
VERTEX
  8
0
  6
CONTINUOUS
 10
5.273840
 20
1.473560
  0
VERTEX
  8
0
  6
CONTINUOUS
 10
5.257120
 20
1.475320
  0
SEQEND
  8
0
  0
SOLID
  8
0
 62
    15
 10
5.273840
 20
1.473560
 11
5.274720
 21
2.219360
 12
5.290120
 22
1.468720
 13
5.291000
 23
2.214520
  0
POLYLINE
  8
0
  6
CONTINUOUS
 66
     1
 40
0.000000
 41
0.000000
  0
VERTEX
  8
0
  6
CONTINUOUS
 10
5.273840
 20
1.473560
  0
VERTEX
  8
0
  6
CONTINUOUS
 10
5.274720
 20
2.219360
  0
VERTEX
  8
0
  6
CONTINUOUS
 10
5.291000
 20
2.214520
  0
VERTEX
  8
0
  6
CONTINUOUS
 10
5.290120
 20
1.468720
  0
VERTEX
  8
0
  6
CONTINUOUS
 10
5.273840
 20
1.473560
  0
SEQEND
  8
0
  0
SOLID
  8
0
 62
    15
 10
5.290120
 20
1.468720
 11
5.291000
 21
2.214520
 12
5.305080
 22
1.460360
 13
5.305960
 23
2.205720
  0
POLYLINE
  8
0
  6
CONTINUOUS
 66
     1
 40
0.000000
 41
0.000000
  0
VERTEX
  8
0
  6
CONTINUOUS
 10
5.290120
 20
1.468720
  0
VERTEX
  8
0
  6
CONTINUOUS
 10
5.291000
 20
2.214520
  0
VERTEX
  8
0
  6
CONTINUOUS
 10
5.305960
 20
2.205720
  0
VERTEX
  8
0
  6
CONTINUOUS
 10
5.305080
 20
1.460360
  0
VERTEX
  8
0
  6
CONTINUOUS
 10
5.290120
 20
1.468720
  0
SEQEND
  8
0
  0
SOLID
  8
0
 62
    15
 10
5.305080
 20
1.460360
 11
5.305960
 21
2.205720
 12
5.318280
 22
1.448040
 13
5.319160
 23
2.193840
  0
POLYLINE
  8
0
  6
CONTINUOUS
 66
     1
 40
0.000000
 41
0.000000
  0
VERTEX
  8
0
  6
CONTINUOUS
 10
5.305080
 20
1.460360
  0
VERTEX
  8
0
  6
CONTINUOUS
 10
5.305960
 20
2.205720
  0
VERTEX
  8
0
  6
CONTINUOUS
 10
5.319160
 20
2.193840
  0
VERTEX
  8
0
  6
CONTINUOUS
 10
5.318280
 20
1.448040
  0
VERTEX
  8
0
  6
CONTINUOUS
 10
5.305080
 20
1.460360
  0
SEQEND
  8
0
  0
SOLID
  8
0
 62
    15
 10
5.318280
 20
1.448040
 11
5.319160
 21
2.193840
 12
5.329720
 22
1.432640
 13
5.330600
 23
2.178440
  0
POLYLINE
  8
0
  6
CONTINUOUS
 66
     1
 40
0.000000
 41
0.000000
  0
VERTEX
  8
0
  6
CONTINUOUS
 10
5.318280
 20
1.448040
  0
VERTEX
  8
0
  6
CONTINUOUS
 10
5.319160
 20
2.193840
  0
VERTEX
  8
0
  6
CONTINUOUS
 10
5.330600
 20
2.178440
  0
VERTEX
  8
0
  6
CONTINUOUS
 10
5.329720
 20
1.432640
  0
VERTEX
  8
0
  6
CONTINUOUS
 10
5.318280
 20
1.448040
  0
SEQEND
  8
0
  0
SOLID
  8
0
 62
    15
 10
5.329720
 20
1.432640
 11
5.330600
 21
2.178440
 12
5.338520
 22
1.413720
 13
5.339400
 23
2.159520
  0
POLYLINE
  8
0
  6
CONTINUOUS
 66
     1
 40
0.000000
 41
0.000000
  0
VERTEX
  8
0
  6
CONTINUOUS
 10
5.329720
 20
1.432640
  0
VERTEX
  8
0
  6
CONTINUOUS
 10
5.330600
 20
2.178440
  0
VERTEX
  8
0
  6
CONTINUOUS
 10
5.339400
 20
2.159520
  0
VERTEX
  8
0
  6
CONTINUOUS
 10
5.338520
 20
1.413720
  0
VERTEX
  8
0
  6
CONTINUOUS
 10
5.329720
 20
1.432640
  0
SEQEND
  8
0
  0
SOLID
  8
0
 62
    15
 10
5.338520
 20
1.413720
 11
5.339400
 21
2.159520
 12
5.344240
 22
1.391280
 13
5.345120
 23
2.137080
  0
POLYLINE
  8
0
  6
CONTINUOUS
 66
     1
 40
0.000000
 41
0.000000
  0
VERTEX
  8
0
  6
CONTINUOUS
 10
5.338520
 20
1.413720
  0
VERTEX
  8
0
  6
CONTINUOUS
 10
5.339400
 20
2.159520
  0
VERTEX
  8
0
  6
CONTINUOUS
 10
5.345120
 20
2.137080
  0
VERTEX
  8
0
  6
CONTINUOUS
 10
5.344240
 20
1.391280
  0
VERTEX
  8
0
  6
CONTINUOUS
 10
5.338520
 20
1.413720
  0
SEQEND
  8
0
  0
SOLID
  8
0
 62
    15
 10
5.344240
 20
1.391280
 11
5.345120
 21
2.137080
 12
5.346000
 22
1.365320
 13
5.346880
 23
2.111120
  0
POLYLINE
  8
0
  6
CONTINUOUS
 66
     1
 40
0.000000
 41
0.000000
  0
VERTEX
  8
0
  6
CONTINUOUS
 10
5.344240
 20
1.391280
  0
VERTEX
  8
0
  6
CONTINUOUS
 10
5.345120
 20
2.137080
  0
VERTEX
  8
0
  6
CONTINUOUS
 10
5.346880
 20
2.111120
  0
VERTEX
  8
0
  6
CONTINUOUS
 10
5.346000
 20
1.365320
  0
VERTEX
  8
0
  6
CONTINUOUS
 10
5.344240
 20
1.391280
  0
SEQEND
  8
0
  0
SOLID
  8
0
 62
    15
 10
5.346000
 20
1.365320
 11
5.346880
 21
2.111120
 12
5.458640
 22
1.365320
 13
5.459520
 23
2.111120
  0
POLYLINE
  8
0
  6
CONTINUOUS
 66
     1
 40
0.000000
 41
0.000000
  0
VERTEX
  8
0
  6
CONTINUOUS
 10
5.346000
 20
1.365320
  0
VERTEX
  8
0
  6
CONTINUOUS
 10
5.346880
 20
2.111120
  0
VERTEX
  8
0
  6
CONTINUOUS
 10
5.459520
 20
2.111120
  0
VERTEX
  8
0
  6
CONTINUOUS
 10
5.458640
 20
1.365320
  0
VERTEX
  8
0
  6
CONTINUOUS
 10
5.346000
 20
1.365320
  0
SEQEND
  8
0
  0
SOLID
  8
0
 62
    15
 10
5.458640
 20
1.365320
 11
5.459520
 21
2.111120
 12
5.465240
 22
1.322200
 13
5.466120
 23
2.068000
  0
POLYLINE
  8
0
  6
CONTINUOUS
 66
     1
 40
0.000000
 41
0.000000
  0
VERTEX
  8
0
  6
CONTINUOUS
 10
5.458640
 20
1.365320
  0
VERTEX
  8
0
  6
CONTINUOUS
 10
5.459520
 20
2.111120
  0
VERTEX
  8
0
  6
CONTINUOUS
 10
5.466120
 20
2.068000
  0
VERTEX
  8
0
  6
CONTINUOUS
 10
5.465240
 20
1.322200
  0
VERTEX
  8
0
  6
CONTINUOUS
 10
5.458640
 20
1.365320
  0
SEQEND
  8
0
  0
SOLID
  8
0
 62
    15
 10
5.465240
 20
1.322200
 11
5.466120
 21
2.068000
 12
5.474040
 22
1.285240
 13
5.474920
 23
2.031040
  0
POLYLINE
  8
0
  6
CONTINUOUS
 66
     1
 40
0.000000
 41
0.000000
  0
VERTEX
  8
0
  6
CONTINUOUS
 10
5.465240
 20
1.322200
  0
VERTEX
  8
0
  6
CONTINUOUS
 10
5.466120
 20
2.068000
  0
VERTEX
  8
0
  6
CONTINUOUS
 10
5.474920
 20
2.031040
  0
VERTEX
  8
0
  6
CONTINUOUS
 10
5.474040
 20
1.285240
  0
VERTEX
  8
0
  6
CONTINUOUS
 10
5.465240
 20
1.322200
  0
SEQEND
  8
0
  0
SOLID
  8
0
 62
    15
 10
5.474040
 20
1.285240
 11
5.474920
 21
2.031040
 12
5.488120
 22
1.254000
 13
5.489000
 23
1.999800
  0
POLYLINE
  8
0
  6
CONTINUOUS
 66
     1
 40
0.000000
 41
0.000000
  0
VERTEX
  8
0
  6
CONTINUOUS
 10
5.474040
 20
1.285240
  0
VERTEX
  8
0
  6
CONTINUOUS
 10
5.474920
 20
2.031040
  0
VERTEX
  8
0
  6
CONTINUOUS
 10
5.489000
 20
1.999800
  0
VERTEX
  8
0
  6
CONTINUOUS
 10
5.488120
 20
1.254000
  0
VERTEX
  8
0
  6
CONTINUOUS
 10
5.474040
 20
1.285240
  0
SEQEND
  8
0
  0
SOLID
  8
0
 62
    15
 10
5.488120
 20
1.254000
 11
5.489000
 21
1.999800
 12
5.509240
 22
1.228920
 13
5.510120
 23
1.974720
  0
POLYLINE
  8
0
  6
CONTINUOUS
 66
     1
 40
0.000000
 41
0.000000
  0
VERTEX
  8
0
  6
CONTINUOUS
 10
5.488120
 20
1.254000
  0
VERTEX
  8
0
  6
CONTINUOUS
 10
5.489000
 20
1.999800
  0
VERTEX
  8
0
  6
CONTINUOUS
 10
5.510120
 20
1.974720
  0
VERTEX
  8
0
  6
CONTINUOUS
 10
5.509240
 20
1.228920
  0
VERTEX
  8
0
  6
CONTINUOUS
 10
5.488120
 20
1.254000
  0
SEQEND
  8
0
  0
SOLID
  8
0
 62
    15
 10
5.509240
 20
1.228920
 11
5.510120
 21
1.974720
 12
5.523320
 22
1.218800
 13
5.524200
 23
1.964600
  0
POLYLINE
  8
0
  6
CONTINUOUS
 66
     1
 40
0.000000
 41
0.000000
  0
VERTEX
  8
0
  6
CONTINUOUS
 10
5.509240
 20
1.228920
  0
VERTEX
  8
0
  6
CONTINUOUS
 10
5.510120
 20
1.974720
  0
VERTEX
  8
0
  6
CONTINUOUS
 10
5.524200
 20
1.964600
  0
VERTEX
  8
0
  6
CONTINUOUS
 10
5.523320
 20
1.218800
  0
VERTEX
  8
0
  6
CONTINUOUS
 10
5.509240
 20
1.228920
  0
SEQEND
  8
0
  0
SOLID
  8
0
 62
    15
 10
5.523320
 20
1.218800
 11
5.524200
 21
1.964600
 12
5.540480
 22
1.210440
 13
5.541360
 23
1.956240
  0
POLYLINE
  8
0
  6
CONTINUOUS
 66
     1
 40
0.000000
 41
0.000000
  0
VERTEX
  8
0
  6
CONTINUOUS
 10
5.523320
 20
1.218800
  0
VERTEX
  8
0
  6
CONTINUOUS
 10
5.524200
 20
1.964600
  0
VERTEX
  8
0
  6
CONTINUOUS
 10
5.541360
 20
1.956240
  0
VERTEX
  8
0
  6
CONTINUOUS
 10
5.540480
 20
1.210440
  0
VERTEX
  8
0
  6
CONTINUOUS
 10
5.523320
 20
1.218800
  0
SEQEND
  8
0
  0
SOLID
  8
0
 62
    15
 10
5.540480
 20
1.210440
 11
5.541360
 21
1.956240
 12
5.560720
 22
1.203400
 13
5.561600
 23
1.949200
  0
POLYLINE
  8
0
  6
CONTINUOUS
 66
     1
 40
0.000000
 41
0.000000
  0
VERTEX
  8
0
  6
CONTINUOUS
 10
5.540480
 20
1.210440
  0
VERTEX
  8
0
  6
CONTINUOUS
 10
5.541360
 20
1.956240
  0
VERTEX
  8
0
  6
CONTINUOUS
 10
5.561600
 20
1.949200
  0
VERTEX
  8
0
  6
CONTINUOUS
 10
5.560720
 20
1.203400
  0
VERTEX
  8
0
  6
CONTINUOUS
 10
5.540480
 20
1.210440
  0
SEQEND
  8
0
  0
SOLID
  8
0
 62
    15
 10
5.560720
 20
1.203400
 11
5.561600
 21
1.949200
 12
5.584480
 22
1.198120
 13
5.585360
 23
1.943920
  0
POLYLINE
  8
0
  6
CONTINUOUS
 66
     1
 40
0.000000
 41
0.000000
  0
VERTEX
  8
0
  6
CONTINUOUS
 10
5.560720
 20
1.203400
  0
VERTEX
  8
0
  6
CONTINUOUS
 10
5.561600
 20
1.949200
  0
VERTEX
  8
0
  6
CONTINUOUS
 10
5.585360
 20
1.943920
  0
VERTEX
  8
0
  6
CONTINUOUS
 10
5.584480
 20
1.198120
  0
VERTEX
  8
0
  6
CONTINUOUS
 10
5.560720
 20
1.203400
  0
SEQEND
  8
0
  0
SOLID
  8
0
 62
    15
 10
5.584480
 20
1.198120
 11
5.585360
 21
1.943920
 12
5.612200
 22
1.194160
 13
5.613080
 23
1.939960
  0
POLYLINE
  8
0
  6
CONTINUOUS
 66
     1
 40
0.000000
 41
0.000000
  0
VERTEX
  8
0
  6
CONTINUOUS
 10
5.584480
 20
1.198120
  0
VERTEX
  8
0
  6
CONTINUOUS
 10
5.585360
 20
1.943920
  0
VERTEX
  8
0
  6
CONTINUOUS
 10
5.613080
 20
1.939960
  0
VERTEX
  8
0
  6
CONTINUOUS
 10
5.612200
 20
1.194160
  0
VERTEX
  8
0
  6
CONTINUOUS
 10
5.584480
 20
1.198120
  0
SEQEND
  8
0
  0
SOLID
  8
0
 62
    15
 10
5.612200
 20
1.194160
 11
5.613080
 21
1.939960
 12
5.643880
 22
1.191960
 13
5.644760
 23
1.937760
  0
POLYLINE
  8
0
  6
CONTINUOUS
 66
     1
 40
0.000000
 41
0.000000
  0
VERTEX
  8
0
  6
CONTINUOUS
 10
5.612200
 20
1.194160
  0
VERTEX
  8
0
  6
CONTINUOUS
 10
5.613080
 20
1.939960
  0
VERTEX
  8
0
  6
CONTINUOUS
 10
5.644760
 20
1.937760
  0
VERTEX
  8
0
  6
CONTINUOUS
 10
5.643880
 20
1.191960
  0
VERTEX
  8
0
  6
CONTINUOUS
 10
5.612200
 20
1.194160
  0
SEQEND
  8
0
  0
SOLID
  8
0
 62
    15
 10
5.643880
 20
1.191960
 11
5.644760
 21
1.937760
 12
5.680400
 22
1.191520
 13
5.681280
 23
1.937320
  0
POLYLINE
  8
0
  6
CONTINUOUS
 66
     1
 40
0.000000
 41
0.000000
  0
VERTEX
  8
0
  6
CONTINUOUS
 10
5.643880
 20
1.191960
  0
VERTEX
  8
0
  6
CONTINUOUS
 10
5.644760
 20
1.937760
  0
VERTEX
  8
0
  6
CONTINUOUS
 10
5.681280
 20
1.937320
  0
VERTEX
  8
0
  6
CONTINUOUS
 10
5.680400
 20
1.191520
  0
VERTEX
  8
0
  6
CONTINUOUS
 10
5.643880
 20
1.191960
  0
SEQEND
  8
0
  0
SOLID
  8
0
 62
    15
 10
5.721760
 20
1.192400
 11
5.722640
 21
1.938200
 12
5.721760
 22
1.056880
 13
5.722640
 23
1.802680
  0
POLYLINE
  8
0
  6
CONTINUOUS
 66
     1
 40
0.000000
 41
0.000000
  0
VERTEX
  8
0
  6
CONTINUOUS
 10
5.721760
 20
1.192400
  0
VERTEX
  8
0
  6
CONTINUOUS
 10
5.722640
 20
1.938200
  0
VERTEX
  8
0
  6
CONTINUOUS
 10
5.722640
 20
1.802680
  0
VERTEX
  8
0
  6
CONTINUOUS
 10
5.721760
 20
1.056880
  0
VERTEX
  8
0
  6
CONTINUOUS
 10
5.721760
 20
1.192400
  0
SEQEND
  8
0
  0
SOLID
  8
0
 62
    15
 10
5.680400
 20
1.191520
 11
5.681280
 21
1.937320
 12
5.721760
 22
1.192400
 13
5.722640
 23
1.938200
  0
POLYLINE
  8
0
  6
CONTINUOUS
 66
     1
 40
0.000000
 41
0.000000
  0
VERTEX
  8
0
  6
CONTINUOUS
 10
5.680400
 20
1.191520
  0
VERTEX
  8
0
  6
CONTINUOUS
 10
5.681280
 20
1.937320
  0
VERTEX
  8
0
  6
CONTINUOUS
 10
5.722640
 20
1.938200
  0
VERTEX
  8
0
  6
CONTINUOUS
 10
5.721760
 20
1.192400
  0
VERTEX
  8
0
  6
CONTINUOUS
 10
5.680400
 20
1.191520
  0
SEQEND
  8
0
  0
SOLID
  8
0
 62
    15
 10
3.867160
 20
1.524160
 11
3.868040
 21
2.269960
 12
3.867600
 22
1.524160
 13
3.868480
 23
2.269960
  0
POLYLINE
  8
0
  6
CONTINUOUS
 66
     1
 40
0.000000
 41
0.000000
  0
VERTEX
  8
0
  6
CONTINUOUS
 10
3.867160
 20
1.524160
  0
VERTEX
  8
0
  6
CONTINUOUS
 10
3.868040
 20
2.269960
  0
VERTEX
  8
0
  6
CONTINUOUS
 10
3.868480
 20
2.269960
  0
VERTEX
  8
0
  6
CONTINUOUS
 10
3.867600
 20
1.524160
  0
VERTEX
  8
0
  6
CONTINUOUS
 10
3.867160
 20
1.524160
  0
SEQEND
  8
0
  0
POLYLINE
  8
0
  6
CONTINUOUS
 66
     1
 40
0.000000
 41
0.000000
  0
VERTEX
  8
0
  6
CONTINUOUS
 10
3.867600
 20
1.524160
  0
VERTEX
  8
0
  6
CONTINUOUS
 10
3.963520
 20
1.524160
  0
VERTEX
  8
0
  6
CONTINUOUS
 10
3.967480
 20
1.569920
  0
VERTEX
  8
0
  6
CONTINUOUS
 10
3.979800
 20
1.611280
  0
VERTEX
  8
0
  6
CONTINUOUS
 10
3.999160
 20
1.647800
  0
VERTEX
  8
0
  6
CONTINUOUS
 10
4.025120
 20
1.679480
  0
VERTEX
  8
0
  6
CONTINUOUS
 10
4.055920
 20
1.705440
  0
VERTEX
  8
0
  6
CONTINUOUS
 10
4.090680
 20
1.725680
  0
VERTEX
  8
0
  6
CONTINUOUS
 10
4.128520
 20
1.739760
  0
VERTEX
  8
0
  6
CONTINUOUS
 10
4.168560
 20
1.746800
  0
VERTEX
  8
0
  6
CONTINUOUS
 10
4.209040
 20
1.746800
  0
VERTEX
  8
0
  6
CONTINUOUS
 10
4.249080
 20
1.738880
  0
VERTEX
  8
0
  6
CONTINUOUS
 10
4.288240
 20
1.723040
  0
VERTEX
  8
0
  6
CONTINUOUS
 10
4.324760
 20
1.698840
  0
VERTEX
  8
0
  6
CONTINUOUS
 10
4.358200
 20
1.665840
  0
VERTEX
  8
0
  6
CONTINUOUS
 10
4.386800
 20
1.623160
  0
VERTEX
  8
0
  6
CONTINUOUS
 10
4.409680
 20
1.570800
  0
VERTEX
  8
0
  6
CONTINUOUS
 10
4.425960
 20
1.508320
  0
VERTEX
  8
0
  6
CONTINUOUS
 10
4.529800
 20
1.508320
  0
VERTEX
  8
0
  6
CONTINUOUS
 10
4.531560
 20
1.477960
  0
VERTEX
  8
0
  6
CONTINUOUS
 10
4.537720
 20
1.449360
  0
VERTEX
  8
0
  6
CONTINUOUS
 10
4.546960
 20
1.422520
  0
VERTEX
  8
0
  6
CONTINUOUS
 10
4.559720
 20
1.398320
  0
VERTEX
  8
0
  6
CONTINUOUS
 10
4.575120
 20
1.376320
  0
VERTEX
  8
0
  6
CONTINUOUS
 10
4.592720
 20
1.356960
  0
VERTEX
  8
0
  6
CONTINUOUS
 10
4.612520
 20
1.340680
  0
VERTEX
  8
0
  6
CONTINUOUS
 10
4.634080
 20
1.327920
  0
VERTEX
  8
0
  6
CONTINUOUS
 10
4.656960
 20
1.318680
  0
VERTEX
  8
0
  6
CONTINUOUS
 10
4.680720
 20
1.313400
  0
VERTEX
  8
0
  6
CONTINUOUS
 10
4.705360
 20
1.312080
  0
VERTEX
  8
0
  6
CONTINUOUS
 10
4.730000
 20
1.315600
  0
VERTEX
  8
0
  6
CONTINUOUS
 10
4.754640
 20
1.323080
  0
VERTEX
  8
0
  6
CONTINUOUS
 10
4.778400
 20
1.335840
  0
VERTEX
  8
0
  6
CONTINUOUS
 10
4.801720
 20
1.354320
  0
VERTEX
  8
0
  6
CONTINUOUS
 10
4.824160
 20
1.377640
  0
VERTEX
  8
0
  6
CONTINUOUS
 10
4.931080
 20
1.377640
  0
VERTEX
  8
0
  6
CONTINUOUS
 10
4.936360
 20
1.402280
  0
VERTEX
  8
0
  6
CONTINUOUS
 10
4.944720
 20
1.422960
  0
VERTEX
  8
0
  6
CONTINUOUS
 10
4.955720
 20
1.440120
  0
VERTEX
  8
0
  6
CONTINUOUS
 10
4.968480
 20
1.453760
  0
VERTEX
  8
0
  6
CONTINUOUS
 10
4.983000
 20
1.464320
  0
VERTEX
  8
0
  6
CONTINUOUS
 10
4.998840
 20
1.471360
  0
VERTEX
  8
0
  6
CONTINUOUS
 10
5.031840
 20
1.475320
  0
VERTEX
  8
0
  6
CONTINUOUS
 10
5.063960
 20
1.466960
  0
VERTEX
  8
0
  6
CONTINUOUS
 10
5.078480
 20
1.458160
  0
VERTEX
  8
0
  6
CONTINUOUS
 10
5.091240
 20
1.446280
  0
VERTEX
  8
0
  6
CONTINUOUS
 10
5.102240
 20
1.431320
  0
VERTEX
  8
0
  6
CONTINUOUS
 10
5.110600
 20
1.413720
  0
VERTEX
  8
0
  6
CONTINUOUS
 10
5.115880
 20
1.393040
  0
VERTEX
  8
0
  6
CONTINUOUS
 10
5.117640
 20
1.369720
  0
VERTEX
  8
0
  6
CONTINUOUS
 10
5.167800
 20
1.369720
  0
VERTEX
  8
0
  6
CONTINUOUS
 10
5.170000
 20
1.394360
  0
VERTEX
  8
0
  6
CONTINUOUS
 10
5.175720
 20
1.415480
  0
VERTEX
  8
0
  6
CONTINUOUS
 10
5.184520
 20
1.433520
  0
VERTEX
  8
0
  6
CONTINUOUS
 10
5.195960
 20
1.448480
  0
VERTEX
  8
0
  6
CONTINUOUS
 10
5.209600
 20
1.460360
  0
VERTEX
  8
0
  6
CONTINUOUS
 10
5.224560
 20
1.468720
  0
VERTEX
  8
0
  6
CONTINUOUS
 10
5.240840
 20
1.473560
  0
VERTEX
  8
0
  6
CONTINUOUS
 10
5.257120
 20
1.475320
  0
VERTEX
  8
0
  6
CONTINUOUS
 10
5.273840
 20
1.473560
  0
VERTEX
  8
0
  6
CONTINUOUS
 10
5.290120
 20
1.468720
  0
VERTEX
  8
0
  6
CONTINUOUS
 10
5.305080
 20
1.460360
  0
VERTEX
  8
0
  6
CONTINUOUS
 10
5.318280
 20
1.448040
  0
VERTEX
  8
0
  6
CONTINUOUS
 10
5.329720
 20
1.432640
  0
VERTEX
  8
0
  6
CONTINUOUS
 10
5.338520
 20
1.413720
  0
VERTEX
  8
0
  6
CONTINUOUS
 10
5.344240
 20
1.391280
  0
VERTEX
  8
0
  6
CONTINUOUS
 10
5.346000
 20
1.365320
  0
VERTEX
  8
0
  6
CONTINUOUS
 10
5.458640
 20
1.365320
  0
VERTEX
  8
0
  6
CONTINUOUS
 10
5.465240
 20
1.322200
  0
VERTEX
  8
0
  6
CONTINUOUS
 10
5.474040
 20
1.285240
  0
VERTEX
  8
0
  6
CONTINUOUS
 10
5.488120
 20
1.254000
  0
VERTEX
  8
0
  6
CONTINUOUS
 10
5.509240
 20
1.228920
  0
VERTEX
  8
0
  6
CONTINUOUS
 10
5.523320
 20
1.218800
  0
VERTEX
  8
0
  6
CONTINUOUS
 10
5.540480
 20
1.210440
  0
VERTEX
  8
0
  6
CONTINUOUS
 10
5.560720
 20
1.203400
  0
VERTEX
  8
0
  6
CONTINUOUS
 10
5.584480
 20
1.198120
  0
VERTEX
  8
0
  6
CONTINUOUS
 10
5.612200
 20
1.194160
  0
VERTEX
  8
0
  6
CONTINUOUS
 10
5.643880
 20
1.191960
  0
VERTEX
  8
0
  6
CONTINUOUS
 10
5.721760
 20
1.192400
  0
VERTEX
  8
0
  6
CONTINUOUS
 10
5.721760
 20
1.056880
  0
VERTEX
  8
0
  6
CONTINUOUS
 10
3.867160
 20
1.056880
  0
VERTEX
  8
0
  6
CONTINUOUS
 10
3.867600
 20
1.524160
  0
SEQEND
  8
0
  0
TEXT
  8
0
 10
4.452360
 20
0.814440
 40
0.138151
  1
BA  1207
 41
1.000000
  7
SN0
 71
     0
 72
     5
 11
5.135143
 21
0.814440
  0
TEXT
  8
0
 10
4.250400
 20
0.622600
 40
0.138151
  1
11/16" x 1-7/8"
 41
1.000000
  7
SN0
 71
     0
 72
     5
 11
5.335933
 21
0.622600
  0
TEXT
  8
0
 10
4.452360
 20
2.812480
 40
0.138151
  1
BA  1207
 41
1.000000
  7
SN0
 71
     0
 72
     5
 11
5.135143
 21
2.812480
  0
TEXT
  8
0
 10
4.250400
 20
2.621080
 40
0.138151
  1
11/16" x 1-7/8"
 41
1.000000
  7
SN0
 71
     0
 72
     5
 11
5.335933
 21
2.621080
  0
ENDSEC
  0
EOF
