  0
SECTION
  2
HEADER
  9
$ACADVER
  1
AC1006
  9
$EXTMIN
 10
5.372400
 20
0.793320
  9
$EXTMAX
 10
7.761600
 20
2.730200
  9
$LTSCALE
 40
0.044000
  9
$PDMODE
 70
    35
  9
$PDSIZE
 40
0.035200
  0
ENDSEC
  0
SECTION
  2
TABLES
  0
TABLE
  2
LTYPE
 70
     9
  0
LTYPE
  2
CONTINUOUS
 70
    64
  3
Solid line
 72
    65
 73
     0
 40
0.000000
  0
LTYPE
  2
DASHED
 70
    64
  3
__ __ __ __ __ __ __ __ __ __ __ __ __ __ __
 72
    65
 73
     2
 40
0.000330
 49
0.000220
 49
-0.000110
  0
LTYPE
  2
HIDDEN
 70
    64
  3
 _ _ _ _ _ _ _ _ _ _ _ _ _ _ _ _ _ _ _ _ _ _
 72
    65
 73
     2
 40
0.000165
 49
0.000110
 49
-0.000055
  0
LTYPE
  2
CENTER
 70
    64
  3
____ _ ____ _ ____ _ ____ _ ____ _ ____ _ ____
 72
    65
 73
     4
 40
0.000880
 49
0.000550
 49
-0.000110
 49
0.000110
 49
-0.000110
  0
LTYPE
  2
PHANTOM
 70
    64
  3
_____ _ _ _____ _ _ _____ _ _ _____ _ _ ____
 72
    65
 73
     6
 40
0.001100
 49
0.000550
 49
-0.000110
 49
0.000110
 49
-0.000110
 49
0.000110
 49
-0.000110
  0
LTYPE
  2
DOT
 70
    64
  3
...............................................
 72
    65
 73
     2
 40
0.000110
 49
0.000000
 49
-0.000110
  0
LTYPE
  2
DASHDOT
 70
    64
  3
__ . __ . __ . __ . __ . __ . __ . __ . __ . __
 72
    65
 73
     4
 40
0.000440
 49
0.000220
 49
-0.000110
 49
0.000000
 49
-0.000110
  0
LTYPE
  2
BORDER
 70
    64
  3
__ __ . __ __ . __ __ . __ __ . __ __ . __ __
 72
    65
 73
     6
 40
0.000770
 49
0.000220
 49
-0.000110
 49
0.000220
 49
-0.000110
 49
0.000000
 49
-0.000110
  0
LTYPE
  2
DIVIDE
 70
    64
  3
__ . . __ . . __ . . __ . . __ . . __ . . __
 72
    65
 73
     6
 40
0.000550
 49
0.000220
 49
-0.000110
 49
0.000000
 49
-0.000110
 49
0.000000
 49
-0.000110
  0
LTYPE
  2
DOTDOT
 70
    64
  3
 . .  . .  . .  . .  . .  . . 
 72
    65
 73
     5
 40
0.000242
 49
-0.000110
 49
0.000000
 49
-0.000110
 49
0.000000
 49
-0.000110
  0
ENDTAB
  0
TABLE
  2
STYLE
 70
     2
  0
STYLE
 70
     0
  2
SN0
 40
0.000000
 41
0.000440
 50
0.000000
 71
     0
 42
0.000000
  3
ROMAND
  0
STYLE
 70
    68
  2
SV0
 40
0.000000
 41
0.000440
 50
0.000000
 71
     0
 42
0.000000
  3
ROMAND
  0
ENDTAB
  0
TABLE
  2
LAYER
 70
     3
  0
LAYER
  2
FOREGROUND
 70
    64
 62
     7
  6
CONTINUOUS
  0
LAYER
  2
BACKGROUND
 70
    65
 62
    -7
  6
CONTINUOUS
  0
LAYER
  2
0
 70
    64
 62
     7
  6
CONTINUOUS
  0
ENDTAB
  0
ENDSEC
  0
SECTION
  2
ENTITIES
  0
POLYLINE
  8
FOREGROUND
  6
CONTINUOUS
 66
     1
 40
0.000000
 41
0.000000
  0
VERTEX
  8
FOREGROUND
  6
CONTINUOUS
 10
0.000000
 20
3.523520
  0
VERTEX
  8
FOREGROUND
  6
CONTINUOUS
 10
8.499920
 20
3.523520
  0
VERTEX
  8
FOREGROUND
  6
CONTINUOUS
 10
8.499920
 20
-7.476480
  0
VERTEX
  8
FOREGROUND
  6
CONTINUOUS
 10
0.000000
 20
-7.476480
  0
VERTEX
  8
FOREGROUND
  6
CONTINUOUS
 10
0.000000
 20
3.523520
  0
SEQEND
  8
0
  0
POLYLINE
  8
FOREGROUND
  6
CONTINUOUS
 66
     1
 40
0.000000
 41
0.000000
  0
VERTEX
  8
FOREGROUND
  6
CONTINUOUS
 10
0.000000
 20
3.523520
  0
VERTEX
  8
FOREGROUND
  6
CONTINUOUS
 10
8.499920
 20
3.523520
  0
VERTEX
  8
FOREGROUND
  6
CONTINUOUS
 10
8.499920
 20
-7.476480
  0
VERTEX
  8
FOREGROUND
  6
CONTINUOUS
 10
0.000000
 20
-7.476480
  0
VERTEX
  8
FOREGROUND
  6
CONTINUOUS
 10
0.000000
 20
3.523520
  0
SEQEND
  8
0
  0
SOLID
  8
0
 62
     7
 10
5.796560
 20
1.636360
 11
6.444680
 21
2.005960
 12
5.814600
 22
1.606440
 13
6.462720
 23
1.976040
  0
POLYLINE
  8
0
  6
CONTINUOUS
 66
     1
 40
0.000000
 41
0.000000
  0
VERTEX
  8
0
  6
CONTINUOUS
 10
5.796560
 20
1.636360
  0
VERTEX
  8
0
  6
CONTINUOUS
 10
6.444680
 20
2.005960
  0
VERTEX
  8
0
  6
CONTINUOUS
 10
6.462720
 20
1.976040
  0
VERTEX
  8
0
  6
CONTINUOUS
 10
5.814600
 20
1.606440
  0
VERTEX
  8
0
  6
CONTINUOUS
 10
5.796560
 20
1.636360
  0
SEQEND
  8
0
  0
SOLID
  8
0
 62
    15
 10
5.494720
 20
2.242680
 11
6.142840
 21
2.612280
 12
5.498240
 22
2.216720
 13
6.146360
 23
2.585880
  0
POLYLINE
  8
0
  6
CONTINUOUS
 66
     1
 40
0.000000
 41
0.000000
  0
VERTEX
  8
0
  6
CONTINUOUS
 10
5.494720
 20
2.242680
  0
VERTEX
  8
0
  6
CONTINUOUS
 10
6.142840
 20
2.612280
  0
VERTEX
  8
0
  6
CONTINUOUS
 10
6.146360
 20
2.585880
  0
VERTEX
  8
0
  6
CONTINUOUS
 10
5.498240
 20
2.216720
  0
VERTEX
  8
0
  6
CONTINUOUS
 10
5.494720
 20
2.242680
  0
SEQEND
  8
0
  0
SOLID
  8
0
 62
    15
 10
5.498240
 20
2.216720
 11
6.146360
 21
2.585880
 12
5.503520
 22
2.187680
 13
6.151640
 23
2.556840
  0
POLYLINE
  8
0
  6
CONTINUOUS
 66
     1
 40
0.000000
 41
0.000000
  0
VERTEX
  8
0
  6
CONTINUOUS
 10
5.498240
 20
2.216720
  0
VERTEX
  8
0
  6
CONTINUOUS
 10
6.146360
 20
2.585880
  0
VERTEX
  8
0
  6
CONTINUOUS
 10
6.151640
 20
2.556840
  0
VERTEX
  8
0
  6
CONTINUOUS
 10
5.503520
 20
2.187680
  0
VERTEX
  8
0
  6
CONTINUOUS
 10
5.498240
 20
2.216720
  0
SEQEND
  8
0
  0
SOLID
  8
0
 62
    15
 10
5.503520
 20
2.187680
 11
6.151640
 21
2.556840
 12
5.510560
 22
2.156000
 13
6.158680
 23
2.525600
  0
POLYLINE
  8
0
  6
CONTINUOUS
 66
     1
 40
0.000000
 41
0.000000
  0
VERTEX
  8
0
  6
CONTINUOUS
 10
5.503520
 20
2.187680
  0
VERTEX
  8
0
  6
CONTINUOUS
 10
6.151640
 20
2.556840
  0
VERTEX
  8
0
  6
CONTINUOUS
 10
6.158680
 20
2.525600
  0
VERTEX
  8
0
  6
CONTINUOUS
 10
5.510560
 20
2.156000
  0
VERTEX
  8
0
  6
CONTINUOUS
 10
5.503520
 20
2.187680
  0
SEQEND
  8
0
  0
SOLID
  8
0
 62
    15
 10
5.510560
 20
2.156000
 11
6.158680
 21
2.525600
 12
5.519800
 22
2.122560
 13
6.167920
 23
2.492160
  0
POLYLINE
  8
0
  6
CONTINUOUS
 66
     1
 40
0.000000
 41
0.000000
  0
VERTEX
  8
0
  6
CONTINUOUS
 10
5.510560
 20
2.156000
  0
VERTEX
  8
0
  6
CONTINUOUS
 10
6.158680
 20
2.525600
  0
VERTEX
  8
0
  6
CONTINUOUS
 10
6.167920
 20
2.492160
  0
VERTEX
  8
0
  6
CONTINUOUS
 10
5.519800
 20
2.122560
  0
VERTEX
  8
0
  6
CONTINUOUS
 10
5.510560
 20
2.156000
  0
SEQEND
  8
0
  0
SOLID
  8
0
 62
    15
 10
5.519800
 20
2.122560
 11
6.167920
 21
2.492160
 12
5.530800
 22
2.087360
 13
6.178920
 23
2.456960
  0
POLYLINE
  8
0
  6
CONTINUOUS
 66
     1
 40
0.000000
 41
0.000000
  0
VERTEX
  8
0
  6
CONTINUOUS
 10
5.519800
 20
2.122560
  0
VERTEX
  8
0
  6
CONTINUOUS
 10
6.167920
 20
2.492160
  0
VERTEX
  8
0
  6
CONTINUOUS
 10
6.178920
 20
2.456960
  0
VERTEX
  8
0
  6
CONTINUOUS
 10
5.530800
 20
2.087360
  0
VERTEX
  8
0
  6
CONTINUOUS
 10
5.519800
 20
2.122560
  0
SEQEND
  8
0
  0
SOLID
  8
0
 62
    15
 10
5.530800
 20
2.087360
 11
6.178920
 21
2.456960
 12
5.557640
 22
2.013440
 13
6.205760
 23
2.383040
  0
POLYLINE
  8
0
  6
CONTINUOUS
 66
     1
 40
0.000000
 41
0.000000
  0
VERTEX
  8
0
  6
CONTINUOUS
 10
5.530800
 20
2.087360
  0
VERTEX
  8
0
  6
CONTINUOUS
 10
6.178920
 20
2.456960
  0
VERTEX
  8
0
  6
CONTINUOUS
 10
6.205760
 20
2.383040
  0
VERTEX
  8
0
  6
CONTINUOUS
 10
5.557640
 20
2.013440
  0
VERTEX
  8
0
  6
CONTINUOUS
 10
5.530800
 20
2.087360
  0
SEQEND
  8
0
  0
SOLID
  8
0
 62
     7
 10
5.557640
 20
2.013440
 11
6.205760
 21
2.383040
 12
5.591080
 22
1.937320
 13
6.239200
 23
2.306920
  0
POLYLINE
  8
0
  6
CONTINUOUS
 66
     1
 40
0.000000
 41
0.000000
  0
VERTEX
  8
0
  6
CONTINUOUS
 10
5.557640
 20
2.013440
  0
VERTEX
  8
0
  6
CONTINUOUS
 10
6.205760
 20
2.383040
  0
VERTEX
  8
0
  6
CONTINUOUS
 10
6.239200
 20
2.306920
  0
VERTEX
  8
0
  6
CONTINUOUS
 10
5.591080
 20
1.937320
  0
VERTEX
  8
0
  6
CONTINUOUS
 10
5.557640
 20
2.013440
  0
SEQEND
  8
0
  0
SOLID
  8
0
 62
     7
 10
5.591080
 20
1.937320
 11
6.239200
 21
2.306920
 12
5.630680
 22
1.862080
 13
6.278800
 23
2.231680
  0
POLYLINE
  8
0
  6
CONTINUOUS
 66
     1
 40
0.000000
 41
0.000000
  0
VERTEX
  8
0
  6
CONTINUOUS
 10
5.591080
 20
1.937320
  0
VERTEX
  8
0
  6
CONTINUOUS
 10
6.239200
 20
2.306920
  0
VERTEX
  8
0
  6
CONTINUOUS
 10
6.278800
 20
2.231680
  0
VERTEX
  8
0
  6
CONTINUOUS
 10
5.630680
 20
1.862080
  0
VERTEX
  8
0
  6
CONTINUOUS
 10
5.591080
 20
1.937320
  0
SEQEND
  8
0
  0
SOLID
  8
0
 62
     7
 10
5.630680
 20
1.862080
 11
6.278800
 21
2.231680
 12
5.676000
 22
1.790800
 13
6.324120
 23
2.160400
  0
POLYLINE
  8
0
  6
CONTINUOUS
 66
     1
 40
0.000000
 41
0.000000
  0
VERTEX
  8
0
  6
CONTINUOUS
 10
5.630680
 20
1.862080
  0
VERTEX
  8
0
  6
CONTINUOUS
 10
6.278800
 20
2.231680
  0
VERTEX
  8
0
  6
CONTINUOUS
 10
6.324120
 20
2.160400
  0
VERTEX
  8
0
  6
CONTINUOUS
 10
5.676000
 20
1.790800
  0
VERTEX
  8
0
  6
CONTINUOUS
 10
5.630680
 20
1.862080
  0
SEQEND
  8
0
  0
SOLID
  8
0
 62
     7
 10
5.676000
 20
1.790800
 11
6.324120
 21
2.160400
 12
5.701080
 22
1.757800
 13
6.349200
 23
2.127400
  0
POLYLINE
  8
0
  6
CONTINUOUS
 66
     1
 40
0.000000
 41
0.000000
  0
VERTEX
  8
0
  6
CONTINUOUS
 10
5.676000
 20
1.790800
  0
VERTEX
  8
0
  6
CONTINUOUS
 10
6.324120
 20
2.160400
  0
VERTEX
  8
0
  6
CONTINUOUS
 10
6.349200
 20
2.127400
  0
VERTEX
  8
0
  6
CONTINUOUS
 10
5.701080
 20
1.757800
  0
VERTEX
  8
0
  6
CONTINUOUS
 10
5.676000
 20
1.790800
  0
SEQEND
  8
0
  0
SOLID
  8
0
 62
     7
 10
5.701080
 20
1.757800
 11
6.349200
 21
2.127400
 12
5.727040
 22
1.726560
 13
6.375160
 23
2.096160
  0
POLYLINE
  8
0
  6
CONTINUOUS
 66
     1
 40
0.000000
 41
0.000000
  0
VERTEX
  8
0
  6
CONTINUOUS
 10
5.701080
 20
1.757800
  0
VERTEX
  8
0
  6
CONTINUOUS
 10
6.349200
 20
2.127400
  0
VERTEX
  8
0
  6
CONTINUOUS
 10
6.375160
 20
2.096160
  0
VERTEX
  8
0
  6
CONTINUOUS
 10
5.727040
 20
1.726560
  0
VERTEX
  8
0
  6
CONTINUOUS
 10
5.701080
 20
1.757800
  0
SEQEND
  8
0
  0
SOLID
  8
0
 62
     7
 10
5.727040
 20
1.726560
 11
6.375160
 21
2.096160
 12
5.752560
 22
1.696640
 13
6.400680
 23
2.066240
  0
POLYLINE
  8
0
  6
CONTINUOUS
 66
     1
 40
0.000000
 41
0.000000
  0
VERTEX
  8
0
  6
CONTINUOUS
 10
5.727040
 20
1.726560
  0
VERTEX
  8
0
  6
CONTINUOUS
 10
6.375160
 20
2.096160
  0
VERTEX
  8
0
  6
CONTINUOUS
 10
6.400680
 20
2.066240
  0
VERTEX
  8
0
  6
CONTINUOUS
 10
5.752560
 20
1.696640
  0
VERTEX
  8
0
  6
CONTINUOUS
 10
5.727040
 20
1.726560
  0
SEQEND
  8
0
  0
SOLID
  8
0
 62
     7
 10
5.752560
 20
1.696640
 11
6.400680
 21
2.066240
 12
5.775880
 22
1.666280
 13
6.424000
 23
2.035880
  0
POLYLINE
  8
0
  6
CONTINUOUS
 66
     1
 40
0.000000
 41
0.000000
  0
VERTEX
  8
0
  6
CONTINUOUS
 10
5.752560
 20
1.696640
  0
VERTEX
  8
0
  6
CONTINUOUS
 10
6.400680
 20
2.066240
  0
VERTEX
  8
0
  6
CONTINUOUS
 10
6.424000
 20
2.035880
  0
VERTEX
  8
0
  6
CONTINUOUS
 10
5.775880
 20
1.666280
  0
VERTEX
  8
0
  6
CONTINUOUS
 10
5.752560
 20
1.696640
  0
SEQEND
  8
0
  0
SOLID
  8
0
 62
     7
 10
5.775880
 20
1.666280
 11
6.424000
 21
2.035880
 12
5.796560
 22
1.636360
 13
6.444680
 23
2.005960
  0
POLYLINE
  8
0
  6
CONTINUOUS
 66
     1
 40
0.000000
 41
0.000000
  0
VERTEX
  8
0
  6
CONTINUOUS
 10
5.775880
 20
1.666280
  0
VERTEX
  8
0
  6
CONTINUOUS
 10
6.424000
 20
2.035880
  0
VERTEX
  8
0
  6
CONTINUOUS
 10
6.444680
 20
2.005960
  0
VERTEX
  8
0
  6
CONTINUOUS
 10
5.796560
 20
1.636360
  0
VERTEX
  8
0
  6
CONTINUOUS
 10
5.775880
 20
1.666280
  0
SEQEND
  8
0
  0
SOLID
  8
0
 62
    15
 10
5.492960
 20
2.266000
 11
6.141080
 21
2.635600
 12
5.494720
 22
2.242680
 13
6.142840
 23
2.612280
  0
POLYLINE
  8
0
  6
CONTINUOUS
 66
     1
 40
0.000000
 41
0.000000
  0
VERTEX
  8
0
  6
CONTINUOUS
 10
5.492960
 20
2.266000
  0
VERTEX
  8
0
  6
CONTINUOUS
 10
6.141080
 20
2.635600
  0
VERTEX
  8
0
  6
CONTINUOUS
 10
6.142840
 20
2.612280
  0
VERTEX
  8
0
  6
CONTINUOUS
 10
5.494720
 20
2.242680
  0
VERTEX
  8
0
  6
CONTINUOUS
 10
5.492960
 20
2.266000
  0
SEQEND
  8
0
  0
SOLID
  8
0
 62
    15
 10
5.814600
 20
1.606440
 11
6.462720
 21
1.976040
 12
5.829560
 22
1.576960
 13
6.477680
 23
1.946560
  0
POLYLINE
  8
0
  6
CONTINUOUS
 66
     1
 40
0.000000
 41
0.000000
  0
VERTEX
  8
0
  6
CONTINUOUS
 10
5.814600
 20
1.606440
  0
VERTEX
  8
0
  6
CONTINUOUS
 10
6.462720
 20
1.976040
  0
VERTEX
  8
0
  6
CONTINUOUS
 10
6.477680
 20
1.946560
  0
VERTEX
  8
0
  6
CONTINUOUS
 10
5.829560
 20
1.576960
  0
VERTEX
  8
0
  6
CONTINUOUS
 10
5.814600
 20
1.606440
  0
SEQEND
  8
0
  0
SOLID
  8
0
 62
    15
 10
5.829560
 20
1.576960
 11
6.477680
 21
1.946560
 12
5.841880
 22
1.547920
 13
6.490000
 23
1.917520
  0
POLYLINE
  8
0
  6
CONTINUOUS
 66
     1
 40
0.000000
 41
0.000000
  0
VERTEX
  8
0
  6
CONTINUOUS
 10
5.829560
 20
1.576960
  0
VERTEX
  8
0
  6
CONTINUOUS
 10
6.477680
 20
1.946560
  0
VERTEX
  8
0
  6
CONTINUOUS
 10
6.490000
 20
1.917520
  0
VERTEX
  8
0
  6
CONTINUOUS
 10
5.841880
 20
1.547920
  0
VERTEX
  8
0
  6
CONTINUOUS
 10
5.829560
 20
1.576960
  0
SEQEND
  8
0
  0
SOLID
  8
0
 62
    15
 10
5.841880
 20
1.547920
 11
6.490000
 21
1.917520
 12
5.851120
 22
1.519760
 13
6.499240
 23
1.889360
  0
POLYLINE
  8
0
  6
CONTINUOUS
 66
     1
 40
0.000000
 41
0.000000
  0
VERTEX
  8
0
  6
CONTINUOUS
 10
5.841880
 20
1.547920
  0
VERTEX
  8
0
  6
CONTINUOUS
 10
6.490000
 20
1.917520
  0
VERTEX
  8
0
  6
CONTINUOUS
 10
6.499240
 20
1.889360
  0
VERTEX
  8
0
  6
CONTINUOUS
 10
5.851120
 20
1.519760
  0
VERTEX
  8
0
  6
CONTINUOUS
 10
5.841880
 20
1.547920
  0
SEQEND
  8
0
  0
SOLID
  8
0
 62
    15
 10
5.851120
 20
1.519760
 11
6.499240
 21
1.889360
 12
5.856840
 22
1.492040
 13
6.504960
 23
1.861640
  0
POLYLINE
  8
0
  6
CONTINUOUS
 66
     1
 40
0.000000
 41
0.000000
  0
VERTEX
  8
0
  6
CONTINUOUS
 10
5.851120
 20
1.519760
  0
VERTEX
  8
0
  6
CONTINUOUS
 10
6.499240
 20
1.889360
  0
VERTEX
  8
0
  6
CONTINUOUS
 10
6.504960
 20
1.861640
  0
VERTEX
  8
0
  6
CONTINUOUS
 10
5.856840
 20
1.492040
  0
VERTEX
  8
0
  6
CONTINUOUS
 10
5.851120
 20
1.519760
  0
SEQEND
  8
0
  0
SOLID
  8
0
 62
    15
 10
5.856840
 20
1.492040
 11
6.504960
 21
1.861640
 12
5.859480
 22
1.465200
 13
6.507600
 23
1.834800
  0
POLYLINE
  8
0
  6
CONTINUOUS
 66
     1
 40
0.000000
 41
0.000000
  0
VERTEX
  8
0
  6
CONTINUOUS
 10
5.856840
 20
1.492040
  0
VERTEX
  8
0
  6
CONTINUOUS
 10
6.504960
 20
1.861640
  0
VERTEX
  8
0
  6
CONTINUOUS
 10
6.507600
 20
1.834800
  0
VERTEX
  8
0
  6
CONTINUOUS
 10
5.859480
 20
1.465200
  0
VERTEX
  8
0
  6
CONTINUOUS
 10
5.856840
 20
1.492040
  0
SEQEND
  8
0
  0
SOLID
  8
0
 62
    15
 10
5.859480
 20
1.465200
 11
6.507600
 21
1.834800
 12
5.858600
 22
1.439680
 13
6.506720
 23
1.809280
  0
POLYLINE
  8
0
  6
CONTINUOUS
 66
     1
 40
0.000000
 41
0.000000
  0
VERTEX
  8
0
  6
CONTINUOUS
 10
5.859480
 20
1.465200
  0
VERTEX
  8
0
  6
CONTINUOUS
 10
6.507600
 20
1.834800
  0
VERTEX
  8
0
  6
CONTINUOUS
 10
6.506720
 20
1.809280
  0
VERTEX
  8
0
  6
CONTINUOUS
 10
5.858600
 20
1.439680
  0
VERTEX
  8
0
  6
CONTINUOUS
 10
5.859480
 20
1.465200
  0
SEQEND
  8
0
  0
SOLID
  8
0
 62
    15
 10
5.858600
 20
1.439680
 11
6.506720
 21
1.809280
 12
5.854200
 22
1.415040
 13
6.502320
 23
1.784640
  0
POLYLINE
  8
0
  6
CONTINUOUS
 66
     1
 40
0.000000
 41
0.000000
  0
VERTEX
  8
0
  6
CONTINUOUS
 10
5.858600
 20
1.439680
  0
VERTEX
  8
0
  6
CONTINUOUS
 10
6.506720
 20
1.809280
  0
VERTEX
  8
0
  6
CONTINUOUS
 10
6.502320
 20
1.784640
  0
VERTEX
  8
0
  6
CONTINUOUS
 10
5.854200
 20
1.415040
  0
VERTEX
  8
0
  6
CONTINUOUS
 10
5.858600
 20
1.439680
  0
SEQEND
  8
0
  0
SOLID
  8
0
 62
    15
 10
5.854200
 20
1.415040
 11
6.502320
 21
1.784640
 12
5.845840
 22
1.392160
 13
6.493960
 23
1.761760
  0
POLYLINE
  8
0
  6
CONTINUOUS
 66
     1
 40
0.000000
 41
0.000000
  0
VERTEX
  8
0
  6
CONTINUOUS
 10
5.854200
 20
1.415040
  0
VERTEX
  8
0
  6
CONTINUOUS
 10
6.502320
 20
1.784640
  0
VERTEX
  8
0
  6
CONTINUOUS
 10
6.493960
 20
1.761760
  0
VERTEX
  8
0
  6
CONTINUOUS
 10
5.845840
 20
1.392160
  0
VERTEX
  8
0
  6
CONTINUOUS
 10
5.854200
 20
1.415040
  0
SEQEND
  8
0
  0
SOLID
  8
0
 62
    15
 10
5.845840
 20
1.392160
 11
6.493960
 21
1.761760
 12
5.833520
 22
1.370160
 13
6.482080
 23
1.739760
  0
POLYLINE
  8
0
  6
CONTINUOUS
 66
     1
 40
0.000000
 41
0.000000
  0
VERTEX
  8
0
  6
CONTINUOUS
 10
5.845840
 20
1.392160
  0
VERTEX
  8
0
  6
CONTINUOUS
 10
6.493960
 20
1.761760
  0
VERTEX
  8
0
  6
CONTINUOUS
 10
6.482080
 20
1.739760
  0
VERTEX
  8
0
  6
CONTINUOUS
 10
5.833520
 20
1.370160
  0
VERTEX
  8
0
  6
CONTINUOUS
 10
5.845840
 20
1.392160
  0
SEQEND
  8
0
  0
SOLID
  8
0
 62
    15
 10
5.833520
 20
1.370160
 11
6.482080
 21
1.739760
 12
5.817680
 22
1.350360
 13
6.465800
 23
1.719960
  0
POLYLINE
  8
0
  6
CONTINUOUS
 66
     1
 40
0.000000
 41
0.000000
  0
VERTEX
  8
0
  6
CONTINUOUS
 10
5.833520
 20
1.370160
  0
VERTEX
  8
0
  6
CONTINUOUS
 10
6.482080
 20
1.739760
  0
VERTEX
  8
0
  6
CONTINUOUS
 10
6.465800
 20
1.719960
  0
VERTEX
  8
0
  6
CONTINUOUS
 10
5.817680
 20
1.350360
  0
VERTEX
  8
0
  6
CONTINUOUS
 10
5.833520
 20
1.370160
  0
SEQEND
  8
0
  0
SOLID
  8
0
 62
    15
 10
5.817680
 20
1.350360
 11
6.465800
 21
1.719960
 12
5.797440
 22
1.331880
 13
6.445560
 23
1.701480
  0
POLYLINE
  8
0
  6
CONTINUOUS
 66
     1
 40
0.000000
 41
0.000000
  0
VERTEX
  8
0
  6
CONTINUOUS
 10
5.817680
 20
1.350360
  0
VERTEX
  8
0
  6
CONTINUOUS
 10
6.465800
 20
1.719960
  0
VERTEX
  8
0
  6
CONTINUOUS
 10
6.445560
 20
1.701480
  0
VERTEX
  8
0
  6
CONTINUOUS
 10
5.797440
 20
1.331880
  0
VERTEX
  8
0
  6
CONTINUOUS
 10
5.817680
 20
1.350360
  0
SEQEND
  8
0
  0
SOLID
  8
0
 62
    15
 10
5.797440
 20
1.331880
 11
6.445560
 21
1.701480
 12
5.772800
 22
1.315600
 13
6.420920
 23
1.685200
  0
POLYLINE
  8
0
  6
CONTINUOUS
 66
     1
 40
0.000000
 41
0.000000
  0
VERTEX
  8
0
  6
CONTINUOUS
 10
5.797440
 20
1.331880
  0
VERTEX
  8
0
  6
CONTINUOUS
 10
6.445560
 20
1.701480
  0
VERTEX
  8
0
  6
CONTINUOUS
 10
6.420920
 20
1.685200
  0
VERTEX
  8
0
  6
CONTINUOUS
 10
5.772800
 20
1.315600
  0
VERTEX
  8
0
  6
CONTINUOUS
 10
5.797440
 20
1.331880
  0
SEQEND
  8
0
  0
SOLID
  8
0
 62
    15
 10
5.772800
 20
1.315600
 11
6.420920
 21
1.685200
 12
5.772800
 22
1.281280
 13
6.420920
 23
1.650880
  0
POLYLINE
  8
0
  6
CONTINUOUS
 66
     1
 40
0.000000
 41
0.000000
  0
VERTEX
  8
0
  6
CONTINUOUS
 10
5.772800
 20
1.315600
  0
VERTEX
  8
0
  6
CONTINUOUS
 10
6.420920
 20
1.685200
  0
VERTEX
  8
0
  6
CONTINUOUS
 10
6.420920
 20
1.650880
  0
VERTEX
  8
0
  6
CONTINUOUS
 10
5.772800
 20
1.281280
  0
VERTEX
  8
0
  6
CONTINUOUS
 10
5.772800
 20
1.315600
  0
SEQEND
  8
0
  0
SOLID
  8
0
 62
    15
 10
5.373280
 20
2.266000
 11
6.021400
 21
2.635600
 12
5.492960
 22
2.266000
 13
6.141080
 23
2.635600
  0
POLYLINE
  8
0
  6
CONTINUOUS
 66
     1
 40
0.000000
 41
0.000000
  0
VERTEX
  8
0
  6
CONTINUOUS
 10
5.373280
 20
2.266000
  0
VERTEX
  8
0
  6
CONTINUOUS
 10
6.021400
 20
2.635600
  0
VERTEX
  8
0
  6
CONTINUOUS
 10
6.141080
 20
2.635600
  0
VERTEX
  8
0
  6
CONTINUOUS
 10
5.492960
 20
2.266000
  0
VERTEX
  8
0
  6
CONTINUOUS
 10
5.373280
 20
2.266000
  0
SEQEND
  8
0
  0
POLYLINE
  8
0
  6
CONTINUOUS
 66
     1
 40
0.000000
 41
0.000000
  0
VERTEX
  8
0
  6
CONTINUOUS
 10
5.492960
 20
2.266000
  0
VERTEX
  8
0
  6
CONTINUOUS
 10
6.141080
 20
2.635600
  0
VERTEX
  8
0
  6
CONTINUOUS
 10
5.492960
 20
2.266000
  0
SEQEND
  8
0
  0
POLYLINE
  8
0
  6
CONTINUOUS
 66
     1
 40
0.000000
 41
0.000000
  0
VERTEX
  8
0
  6
CONTINUOUS
 10
5.492960
 20
2.266000
  0
VERTEX
  8
0
  6
CONTINUOUS
 10
5.494720
 20
2.242680
  0
VERTEX
  8
0
  6
CONTINUOUS
 10
5.498240
 20
2.216720
  0
VERTEX
  8
0
  6
CONTINUOUS
 10
5.503520
 20
2.187680
  0
VERTEX
  8
0
  6
CONTINUOUS
 10
5.510560
 20
2.156000
  0
VERTEX
  8
0
  6
CONTINUOUS
 10
5.519800
 20
2.122560
  0
VERTEX
  8
0
  6
CONTINUOUS
 10
5.530800
 20
2.087360
  0
VERTEX
  8
0
  6
CONTINUOUS
 10
5.557640
 20
2.013440
  0
VERTEX
  8
0
  6
CONTINUOUS
 10
5.591080
 20
1.937320
  0
VERTEX
  8
0
  6
CONTINUOUS
 10
5.630680
 20
1.862080
  0
VERTEX
  8
0
  6
CONTINUOUS
 10
5.676000
 20
1.790800
  0
VERTEX
  8
0
  6
CONTINUOUS
 10
5.701080
 20
1.757800
  0
VERTEX
  8
0
  6
CONTINUOUS
 10
5.727040
 20
1.726560
  0
VERTEX
  8
0
  6
CONTINUOUS
 10
5.752560
 20
1.696640
  0
VERTEX
  8
0
  6
CONTINUOUS
 10
5.775880
 20
1.666280
  0
VERTEX
  8
0
  6
CONTINUOUS
 10
5.796560
 20
1.636360
  0
VERTEX
  8
0
  6
CONTINUOUS
 10
5.814600
 20
1.606440
  0
VERTEX
  8
0
  6
CONTINUOUS
 10
5.829560
 20
1.576960
  0
VERTEX
  8
0
  6
CONTINUOUS
 10
5.841880
 20
1.547920
  0
VERTEX
  8
0
  6
CONTINUOUS
 10
5.851120
 20
1.519760
  0
VERTEX
  8
0
  6
CONTINUOUS
 10
5.856840
 20
1.492040
  0
VERTEX
  8
0
  6
CONTINUOUS
 10
5.859480
 20
1.465200
  0
VERTEX
  8
0
  6
CONTINUOUS
 10
5.858600
 20
1.439680
  0
VERTEX
  8
0
  6
CONTINUOUS
 10
5.854200
 20
1.415040
  0
VERTEX
  8
0
  6
CONTINUOUS
 10
5.845840
 20
1.392160
  0
VERTEX
  8
0
  6
CONTINUOUS
 10
5.833520
 20
1.370160
  0
VERTEX
  8
0
  6
CONTINUOUS
 10
5.817680
 20
1.350360
  0
VERTEX
  8
0
  6
CONTINUOUS
 10
5.797440
 20
1.331880
  0
VERTEX
  8
0
  6
CONTINUOUS
 10
5.772800
 20
1.315600
  0
VERTEX
  8
0
  6
CONTINUOUS
 10
5.772800
 20
1.281280
  0
VERTEX
  8
0
  6
CONTINUOUS
 10
5.373280
 20
1.281280
  0
VERTEX
  8
0
  6
CONTINUOUS
 10
5.373280
 20
2.266000
  0
VERTEX
  8
0
  6
CONTINUOUS
 10
5.492960
 20
2.266000
  0
SEQEND
  8
0
  0
TEXT
  8
0
 10
5.598560
 20
1.028280
 40
0.138091
  1
BA  1075
 41
1.000000
  7
SN0
 71
     0
 72
     5
 11
6.280796
 21
1.028280
  0
TEXT
  8
0
 10
5.632000
 20
0.836440
 40
0.138091
  1
1/2" x 1"
 41
1.000000
  7
SN0
 71
     0
 72
     5
 11
6.246861
 21
0.836440
  0
POLYLINE
  8
0
  6
CONTINUOUS
 66
     1
 40
0.014080
 41
0.014080
  0
VERTEX
  8
0
  6
CONTINUOUS
 10
7.754120
 20
2.355760
  0
VERTEX
  8
0
  6
CONTINUOUS
 10
7.754120
 20
2.236080
  0
VERTEX
  8
0
  6
CONTINUOUS
 10
6.769400
 20
2.236080
  0
VERTEX
  8
0
  6
CONTINUOUS
 10
6.769400
 20
2.635600
  0
VERTEX
  8
0
  6
CONTINUOUS
 10
6.803720
 20
2.635600
  0
VERTEX
  8
0
  6
CONTINUOUS
 10
6.820000
 20
2.660240
  0
VERTEX
  8
0
  6
CONTINUOUS
 10
6.838480
 20
2.680480
  0
VERTEX
  8
0
  6
CONTINUOUS
 10
6.858720
 20
2.696760
  0
VERTEX
  8
0
  6
CONTINUOUS
 10
6.891720
 20
2.713480
  0
VERTEX
  8
0
  6
CONTINUOUS
 10
6.915480
 20
2.719640
  0
VERTEX
  8
0
  6
CONTINUOUS
 10
6.940560
 20
2.722280
  0
VERTEX
  8
0
  6
CONTINUOUS
 10
6.966520
 20
2.721400
  0
VERTEX
  8
0
  6
CONTINUOUS
 10
6.993800
 20
2.717440
  0
VERTEX
  8
0
  6
CONTINUOUS
 10
7.036040
 20
2.704680
  0
VERTEX
  8
0
  6
CONTINUOUS
 10
7.080040
 20
2.685320
  0
VERTEX
  8
0
  6
CONTINUOUS
 10
7.124480
 20
2.659360
  0
VERTEX
  8
0
  6
CONTINUOUS
 10
7.154400
 20
2.638680
  0
VERTEX
  8
0
  6
CONTINUOUS
 10
7.184760
 20
2.615360
  0
VERTEX
  8
0
  6
CONTINUOUS
 10
7.245920
 20
2.563880
  0
VERTEX
  8
0
  6
CONTINUOUS
 10
7.278920
 20
2.538800
  0
VERTEX
  8
0
  6
CONTINUOUS
 10
7.350200
 20
2.493480
  0
VERTEX
  8
0
  6
CONTINUOUS
 10
7.425440
 20
2.453880
  0
VERTEX
  8
0
  6
CONTINUOUS
 10
7.463280
 20
2.436280
  0
VERTEX
  8
0
  6
CONTINUOUS
 10
7.538960
 20
2.406360
  0
VERTEX
  8
0
  6
CONTINUOUS
 10
7.610680
 20
2.382600
  0
VERTEX
  8
0
  6
CONTINUOUS
 10
7.690320
 20
2.363240
  0
VERTEX
  8
0
  6
CONTINUOUS
 10
7.743120
 20
2.356200
  0
VERTEX
  8
0
  6
CONTINUOUS
 10
7.754120
 20
2.355760
  0
SEQEND
  8
0
  0
TEXT
  8
0
 10
6.917680
 20
1.996280
 40
0.138091
  1
BA  1075
 41
1.000000
  7
SN0
 71
     0
 72
     5
 11
7.599916
 21
1.996280
  0
TEXT
  8
0
 10
6.951120
 20
1.804880
 40
0.138091
  1
1/2" x 1"
 41
1.000000
  7
SN0
 71
     0
 72
     5
 11
7.565981
 21
1.804880
  0
ENDSEC
  0
EOF
