  0
SECTION
  2
HEADER
  9
$ACADVER
  1
AC1006
  9
$EXTMIN
 10
2.345640
 20
0.616440
  9
$EXTMAX
 10
6.949360
 20
3.751000
  9
$LTSCALE
 40
0.044000
  9
$PDMODE
 70
    35
  9
$PDSIZE
 40
0.035200
  0
ENDSEC
  0
SECTION
  2
TABLES
  0
TABLE
  2
LTYPE
 70
     9
  0
LTYPE
  2
CONTINUOUS
 70
    64
  3
Solid line
 72
    65
 73
     0
 40
0.000000
  0
LTYPE
  2
DASHED
 70
    64
  3
__ __ __ __ __ __ __ __ __ __ __ __ __ __ __
 72
    65
 73
     2
 40
0.000330
 49
0.000220
 49
-0.000110
  0
LTYPE
  2
HIDDEN
 70
    64
  3
 _ _ _ _ _ _ _ _ _ _ _ _ _ _ _ _ _ _ _ _ _ _
 72
    65
 73
     2
 40
0.000165
 49
0.000110
 49
-0.000055
  0
LTYPE
  2
CENTER
 70
    64
  3
____ _ ____ _ ____ _ ____ _ ____ _ ____ _ ____
 72
    65
 73
     4
 40
0.000880
 49
0.000550
 49
-0.000110
 49
0.000110
 49
-0.000110
  0
LTYPE
  2
PHANTOM
 70
    64
  3
_____ _ _ _____ _ _ _____ _ _ _____ _ _ ____
 72
    65
 73
     6
 40
0.001100
 49
0.000550
 49
-0.000110
 49
0.000110
 49
-0.000110
 49
0.000110
 49
-0.000110
  0
LTYPE
  2
DOT
 70
    64
  3
...............................................
 72
    65
 73
     2
 40
0.000110
 49
0.000000
 49
-0.000110
  0
LTYPE
  2
DASHDOT
 70
    64
  3
__ . __ . __ . __ . __ . __ . __ . __ . __ . __
 72
    65
 73
     4
 40
0.000440
 49
0.000220
 49
-0.000110
 49
0.000000
 49
-0.000110
  0
LTYPE
  2
BORDER
 70
    64
  3
__ __ . __ __ . __ __ . __ __ . __ __ . __ __
 72
    65
 73
     6
 40
0.000770
 49
0.000220
 49
-0.000110
 49
0.000220
 49
-0.000110
 49
0.000000
 49
-0.000110
  0
LTYPE
  2
DIVIDE
 70
    64
  3
__ . . __ . . __ . . __ . . __ . . __ . . __
 72
    65
 73
     6
 40
0.000550
 49
0.000220
 49
-0.000110
 49
0.000000
 49
-0.000110
 49
0.000000
 49
-0.000110
  0
LTYPE
  2
DOTDOT
 70
    64
  3
 . .  . .  . .  . .  . .  . . 
 72
    65
 73
     5
 40
0.000242
 49
-0.000110
 49
0.000000
 49
-0.000110
 49
0.000000
 49
-0.000110
  0
ENDTAB
  0
TABLE
  2
STYLE
 70
     2
  0
STYLE
 70
     0
  2
SN0
 40
0.000000
 41
0.000440
 50
0.000000
 71
     0
 42
0.000000
  3
ROMAND
  0
STYLE
 70
    68
  2
SV0
 40
0.000000
 41
0.000440
 50
0.000000
 71
     0
 42
0.000000
  3
ROMAND
  0
ENDTAB
  0
TABLE
  2
LAYER
 70
     3
  0
LAYER
  2
FOREGROUND
 70
    64
 62
     7
  6
CONTINUOUS
  0
LAYER
  2
BACKGROUND
 70
    65
 62
    -7
  6
CONTINUOUS
  0
LAYER
  2
0
 70
    64
 62
     7
  6
CONTINUOUS
  0
ENDTAB
  0
ENDSEC
  0
SECTION
  2
ENTITIES
  0
POLYLINE
  8
FOREGROUND
  6
CONTINUOUS
 66
     1
 40
0.000000
 41
0.000000
  0
VERTEX
  8
FOREGROUND
  6
CONTINUOUS
 10
0.000000
 20
4.367440
  0
VERTEX
  8
FOREGROUND
  6
CONTINUOUS
 10
8.499920
 20
4.367440
  0
VERTEX
  8
FOREGROUND
  6
CONTINUOUS
 10
8.499920
 20
-6.632560
  0
VERTEX
  8
FOREGROUND
  6
CONTINUOUS
 10
0.000000
 20
-6.632560
  0
VERTEX
  8
FOREGROUND
  6
CONTINUOUS
 10
0.000000
 20
4.367440
  0
SEQEND
  8
0
  0
POLYLINE
  8
FOREGROUND
  6
CONTINUOUS
 66
     1
 40
0.000000
 41
0.000000
  0
VERTEX
  8
FOREGROUND
  6
CONTINUOUS
 10
0.000000
 20
4.367440
  0
VERTEX
  8
FOREGROUND
  6
CONTINUOUS
 10
8.499920
 20
4.367440
  0
VERTEX
  8
FOREGROUND
  6
CONTINUOUS
 10
8.499920
 20
-6.632560
  0
VERTEX
  8
FOREGROUND
  6
CONTINUOUS
 10
0.000000
 20
-6.632560
  0
VERTEX
  8
FOREGROUND
  6
CONTINUOUS
 10
0.000000
 20
4.367440
  0
SEQEND
  8
0
  0
SOLID
  8
0
 62
    15
 10
2.452560
 20
1.107920
 11
2.446400
 21
1.862960
 12
2.452560
 22
1.857680
 13
2.446400
 23
2.612280
  0
POLYLINE
  8
0
  6
CONTINUOUS
 66
     1
 40
0.000000
 41
0.000000
  0
VERTEX
  8
0
  6
CONTINUOUS
 10
2.452560
 20
1.107920
  0
VERTEX
  8
0
  6
CONTINUOUS
 10
2.446400
 20
1.862960
  0
VERTEX
  8
0
  6
CONTINUOUS
 10
2.446400
 20
2.612280
  0
VERTEX
  8
0
  6
CONTINUOUS
 10
2.452560
 20
1.857680
  0
VERTEX
  8
0
  6
CONTINUOUS
 10
2.452560
 20
1.107920
  0
SEQEND
  8
0
  0
SOLID
  8
0
 62
    15
 10
6.572280
 20
1.736680
 11
6.566560
 21
2.491720
 12
6.572280
 22
1.857680
 13
6.566560
 23
2.612280
  0
POLYLINE
  8
0
  6
CONTINUOUS
 66
     1
 40
0.000000
 41
0.000000
  0
VERTEX
  8
0
  6
CONTINUOUS
 10
6.572280
 20
1.736680
  0
VERTEX
  8
0
  6
CONTINUOUS
 10
6.566560
 20
2.491720
  0
VERTEX
  8
0
  6
CONTINUOUS
 10
6.566560
 20
2.612280
  0
VERTEX
  8
0
  6
CONTINUOUS
 10
6.572280
 20
1.857680
  0
VERTEX
  8
0
  6
CONTINUOUS
 10
6.572280
 20
1.736680
  0
SEQEND
  8
0
  0
SOLID
  8
0
 62
    15
 10
6.572280
 20
1.857680
 11
6.566560
 21
2.612280
 12
6.948920
 22
1.857680
 13
6.943200
 23
2.612280
  0
POLYLINE
  8
0
  6
CONTINUOUS
 66
     1
 40
0.000000
 41
0.000000
  0
VERTEX
  8
0
  6
CONTINUOUS
 10
6.572280
 20
1.857680
  0
VERTEX
  8
0
  6
CONTINUOUS
 10
6.566560
 20
2.612280
  0
VERTEX
  8
0
  6
CONTINUOUS
 10
6.943200
 20
2.612280
  0
VERTEX
  8
0
  6
CONTINUOUS
 10
6.948920
 20
1.857680
  0
VERTEX
  8
0
  6
CONTINUOUS
 10
6.572280
 20
1.857680
  0
SEQEND
  8
0
  0
SOLID
  8
0
 62
    15
 10
3.135000
 20
1.629760
 11
3.129280
 21
2.384360
 12
6.262960
 22
1.629760
 13
6.256800
 23
2.384360
  0
POLYLINE
  8
0
  6
CONTINUOUS
 66
     1
 40
0.000000
 41
0.000000
  0
VERTEX
  8
0
  6
CONTINUOUS
 10
3.135000
 20
1.629760
  0
VERTEX
  8
0
  6
CONTINUOUS
 10
3.129280
 20
2.384360
  0
VERTEX
  8
0
  6
CONTINUOUS
 10
6.256800
 20
2.384360
  0
VERTEX
  8
0
  6
CONTINUOUS
 10
6.262960
 20
1.629760
  0
VERTEX
  8
0
  6
CONTINUOUS
 10
3.135000
 20
1.629760
  0
SEQEND
  8
0
  0
SOLID
  8
0
 62
    15
 10
6.263400
 20
1.736680
 11
6.257680
 21
2.491720
 12
6.572280
 22
1.736680
 13
6.566560
 23
2.491720
  0
POLYLINE
  8
0
  6
CONTINUOUS
 66
     1
 40
0.000000
 41
0.000000
  0
VERTEX
  8
0
  6
CONTINUOUS
 10
6.263400
 20
1.736680
  0
VERTEX
  8
0
  6
CONTINUOUS
 10
6.257680
 20
2.491720
  0
VERTEX
  8
0
  6
CONTINUOUS
 10
6.566560
 20
2.491720
  0
VERTEX
  8
0
  6
CONTINUOUS
 10
6.572280
 20
1.736680
  0
VERTEX
  8
0
  6
CONTINUOUS
 10
6.263400
 20
1.736680
  0
SEQEND
  8
0
  0
SOLID
  8
0
 62
    15
 10
2.828760
 20
1.737120
 11
2.823040
 21
2.492160
 12
3.135000
 22
1.737120
 13
3.129280
 23
2.492160
  0
POLYLINE
  8
0
  6
CONTINUOUS
 66
     1
 40
0.000000
 41
0.000000
  0
VERTEX
  8
0
  6
CONTINUOUS
 10
2.828760
 20
1.737120
  0
VERTEX
  8
0
  6
CONTINUOUS
 10
2.823040
 20
2.492160
  0
VERTEX
  8
0
  6
CONTINUOUS
 10
3.129280
 20
2.492160
  0
VERTEX
  8
0
  6
CONTINUOUS
 10
3.135000
 20
1.737120
  0
VERTEX
  8
0
  6
CONTINUOUS
 10
2.828760
 20
1.737120
  0
SEQEND
  8
0
  0
SOLID
  8
0
 62
    15
 10
2.452560
 20
1.857680
 11
2.446400
 21
2.612280
 12
2.828760
 22
1.857680
 13
2.823040
 23
2.612280
  0
POLYLINE
  8
0
  6
CONTINUOUS
 66
     1
 40
0.000000
 41
0.000000
  0
VERTEX
  8
0
  6
CONTINUOUS
 10
2.452560
 20
1.857680
  0
VERTEX
  8
0
  6
CONTINUOUS
 10
2.446400
 20
2.612280
  0
VERTEX
  8
0
  6
CONTINUOUS
 10
2.823040
 20
2.612280
  0
VERTEX
  8
0
  6
CONTINUOUS
 10
2.828760
 20
1.857680
  0
VERTEX
  8
0
  6
CONTINUOUS
 10
2.452560
 20
1.857680
  0
SEQEND
  8
0
  0
SOLID
  8
0
 62
    15
 10
6.262960
 20
1.629760
 11
6.256800
 21
2.384360
 12
6.262960
 22
1.736680
 13
6.256800
 23
2.491720
  0
POLYLINE
  8
0
  6
CONTINUOUS
 66
     1
 40
0.000000
 41
0.000000
  0
VERTEX
  8
0
  6
CONTINUOUS
 10
6.262960
 20
1.629760
  0
VERTEX
  8
0
  6
CONTINUOUS
 10
6.256800
 20
2.384360
  0
VERTEX
  8
0
  6
CONTINUOUS
 10
6.256800
 20
2.491720
  0
VERTEX
  8
0
  6
CONTINUOUS
 10
6.262960
 20
1.736680
  0
VERTEX
  8
0
  6
CONTINUOUS
 10
6.262960
 20
1.629760
  0
SEQEND
  8
0
  0
SOLID
  8
0
 62
    15
 10
6.262960
 20
1.736680
 11
6.256800
 21
2.491720
 12
6.263400
 22
1.736680
 13
6.257680
 23
2.491720
  0
POLYLINE
  8
0
  6
CONTINUOUS
 66
     1
 40
0.000000
 41
0.000000
  0
VERTEX
  8
0
  6
CONTINUOUS
 10
6.262960
 20
1.736680
  0
VERTEX
  8
0
  6
CONTINUOUS
 10
6.256800
 20
2.491720
  0
VERTEX
  8
0
  6
CONTINUOUS
 10
6.257680
 20
2.491720
  0
VERTEX
  8
0
  6
CONTINUOUS
 10
6.263400
 20
1.736680
  0
VERTEX
  8
0
  6
CONTINUOUS
 10
6.262960
 20
1.736680
  0
SEQEND
  8
0
  0
POLYLINE
  8
0
  6
CONTINUOUS
 66
     1
 40
0.000000
 41
0.000000
  0
VERTEX
  8
0
  6
CONTINUOUS
 10
6.263400
 20
1.736680
  0
VERTEX
  8
0
  6
CONTINUOUS
 10
6.572280
 20
1.736680
  0
VERTEX
  8
0
  6
CONTINUOUS
 10
6.572280
 20
1.857680
  0
VERTEX
  8
0
  6
CONTINUOUS
 10
6.948920
 20
1.857680
  0
VERTEX
  8
0
  6
CONTINUOUS
 10
6.948920
 20
1.107920
  0
VERTEX
  8
0
  6
CONTINUOUS
 10
2.452560
 20
1.107920
  0
VERTEX
  8
0
  6
CONTINUOUS
 10
2.452560
 20
1.857680
  0
VERTEX
  8
0
  6
CONTINUOUS
 10
2.828760
 20
1.857680
  0
VERTEX
  8
0
  6
CONTINUOUS
 10
2.828760
 20
1.737120
  0
VERTEX
  8
0
  6
CONTINUOUS
 10
3.135000
 20
1.737120
  0
VERTEX
  8
0
  6
CONTINUOUS
 10
3.135000
 20
1.629760
  0
VERTEX
  8
0
  6
CONTINUOUS
 10
6.262960
 20
1.629760
  0
VERTEX
  8
0
  6
CONTINUOUS
 10
6.262960
 20
1.736680
  0
VERTEX
  8
0
  6
CONTINUOUS
 10
6.263400
 20
1.736680
  0
SEQEND
  8
0
  0
TEXT
  8
0
 10
4.355120
 20
0.852280
 40
0.138213
  1
BA  1025
 41
1.000000
  7
SN0
 71
     0
 72
     5
 11
5.038082
 21
0.852280
  0
TEXT
  8
0
 10
4.245560
 20
0.660880
 40
0.138213
  1
3/4" x 4-1/2"
 41
1.000000
  7
SN0
 71
     0
 72
     5
 11
5.147659
 21
0.660880
  0
POLYLINE
  8
0
  6
CONTINUOUS
 66
     1
 40
0.014080
 41
0.014080
  0
VERTEX
  8
0
  6
CONTINUOUS
 10
6.163520
 20
3.622960
  0
VERTEX
  8
0
  6
CONTINUOUS
 10
6.163520
 20
3.515600
  0
VERTEX
  8
0
  6
CONTINUOUS
 10
6.061000
 20
3.515600
  0
VERTEX
  8
0
  6
CONTINUOUS
 10
3.223000
 20
3.515600
  0
VERTEX
  8
0
  6
CONTINUOUS
 10
3.035560
 20
3.515600
  0
VERTEX
  8
0
  6
CONTINUOUS
 10
3.035560
 20
3.623400
  0
VERTEX
  8
0
  6
CONTINUOUS
 10
2.729760
 20
3.623400
  0
VERTEX
  8
0
  6
CONTINUOUS
 10
2.729760
 20
3.743520
  0
VERTEX
  8
0
  6
CONTINUOUS
 10
2.353120
 20
3.743520
  0
VERTEX
  8
0
  6
CONTINUOUS
 10
2.353120
 20
2.994200
  0
VERTEX
  8
0
  6
CONTINUOUS
 10
6.849920
 20
2.994200
  0
VERTEX
  8
0
  6
CONTINUOUS
 10
6.849920
 20
3.743520
  0
VERTEX
  8
0
  6
CONTINUOUS
 10
6.473280
 20
3.743520
  0
VERTEX
  8
0
  6
CONTINUOUS
 10
6.473280
 20
3.622960
  0
VERTEX
  8
0
  6
CONTINUOUS
 10
6.164400
 20
3.622960
  0
VERTEX
  8
0
  6
CONTINUOUS
 10
6.163520
 20
3.622960
  0
SEQEND
  8
0
  0
TEXT
  8
0
 10
4.372720
 20
3.297800
 40
0.138213
  1
BA  1025
 41
1.000000
  7
SN0
 71
     0
 72
     5
 11
5.055682
 21
3.297800
  0
TEXT
  8
0
 10
4.262720
 20
3.105960
 40
0.138213
  1
3/4" x 4-1/2"
 41
1.000000
  7
SN0
 71
     0
 72
     5
 11
5.164819
 21
3.105960
  0
ENDSEC
  0
EOF
