  0
SECTION
  2
HEADER
  9
$ACADVER
  1
AC1006
  9
$EXTMIN
 10
2.794440
 20
0.678920
  9
$EXTMAX
 10
6.790960
 20
9.567800
  9
$LTSCALE
 40
0.044000
  9
$PDMODE
 70
    35
  9
$PDSIZE
 40
0.035200
  0
ENDSEC
  0
SECTION
  2
TABLES
  0
TABLE
  2
LTYPE
 70
     9
  0
LTYPE
  2
CONTINUOUS
 70
    64
  3
Solid line
 72
    65
 73
     0
 40
0.000000
  0
LTYPE
  2
DASHED
 70
    64
  3
__ __ __ __ __ __ __ __ __ __ __ __ __ __ __
 72
    65
 73
     2
 40
0.000330
 49
0.000220
 49
-0.000110
  0
LTYPE
  2
HIDDEN
 70
    64
  3
 _ _ _ _ _ _ _ _ _ _ _ _ _ _ _ _ _ _ _ _ _ _
 72
    65
 73
     2
 40
0.000165
 49
0.000110
 49
-0.000055
  0
LTYPE
  2
CENTER
 70
    64
  3
____ _ ____ _ ____ _ ____ _ ____ _ ____ _ ____
 72
    65
 73
     4
 40
0.000880
 49
0.000550
 49
-0.000110
 49
0.000110
 49
-0.000110
  0
LTYPE
  2
PHANTOM
 70
    64
  3
_____ _ _ _____ _ _ _____ _ _ _____ _ _ ____
 72
    65
 73
     6
 40
0.001100
 49
0.000550
 49
-0.000110
 49
0.000110
 49
-0.000110
 49
0.000110
 49
-0.000110
  0
LTYPE
  2
DOT
 70
    64
  3
...............................................
 72
    65
 73
     2
 40
0.000110
 49
0.000000
 49
-0.000110
  0
LTYPE
  2
DASHDOT
 70
    64
  3
__ . __ . __ . __ . __ . __ . __ . __ . __ . __
 72
    65
 73
     4
 40
0.000440
 49
0.000220
 49
-0.000110
 49
0.000000
 49
-0.000110
  0
LTYPE
  2
BORDER
 70
    64
  3
__ __ . __ __ . __ __ . __ __ . __ __ . __ __
 72
    65
 73
     6
 40
0.000770
 49
0.000220
 49
-0.000110
 49
0.000220
 49
-0.000110
 49
0.000000
 49
-0.000110
  0
LTYPE
  2
DIVIDE
 70
    64
  3
__ . . __ . . __ . . __ . . __ . . __ . . __
 72
    65
 73
     6
 40
0.000550
 49
0.000220
 49
-0.000110
 49
0.000000
 49
-0.000110
 49
0.000000
 49
-0.000110
  0
LTYPE
  2
DOTDOT
 70
    64
  3
 . .  . .  . .  . .  . .  . . 
 72
    65
 73
     5
 40
0.000242
 49
-0.000110
 49
0.000000
 49
-0.000110
 49
0.000000
 49
-0.000110
  0
ENDTAB
  0
TABLE
  2
STYLE
 70
     2
  0
STYLE
 70
     0
  2
SN0
 40
0.000000
 41
0.000440
 50
0.000000
 71
     0
 42
0.000000
  3
ROMAND
  0
STYLE
 70
    68
  2
SV0
 40
0.000000
 41
0.000440
 50
0.000000
 71
     0
 42
0.000000
  3
ROMAND
  0
ENDTAB
  0
TABLE
  2
LAYER
 70
     3
  0
LAYER
  2
FOREGROUND
 70
    64
 62
     7
  6
CONTINUOUS
  0
LAYER
  2
BACKGROUND
 70
    65
 62
    -7
  6
CONTINUOUS
  0
LAYER
  2
0
 70
    64
 62
     7
  6
CONTINUOUS
  0
ENDTAB
  0
ENDSEC
  0
SECTION
  2
ENTITIES
  0
POLYLINE
  8
FOREGROUND
  6
CONTINUOUS
 66
     1
 40
0.000000
 41
0.000000
  0
VERTEX
  8
FOREGROUND
  6
CONTINUOUS
 10
0.000000
 20
10.246720
  0
VERTEX
  8
FOREGROUND
  6
CONTINUOUS
 10
8.499920
 20
10.246720
  0
VERTEX
  8
FOREGROUND
  6
CONTINUOUS
 10
8.499920
 20
-0.753280
  0
VERTEX
  8
FOREGROUND
  6
CONTINUOUS
 10
0.000000
 20
-0.753280
  0
VERTEX
  8
FOREGROUND
  6
CONTINUOUS
 10
0.000000
 20
10.246720
  0
SEQEND
  8
0
  0
POLYLINE
  8
FOREGROUND
  6
CONTINUOUS
 66
     1
 40
0.000000
 41
0.000000
  0
VERTEX
  8
FOREGROUND
  6
CONTINUOUS
 10
0.000000
 20
10.246720
  0
VERTEX
  8
FOREGROUND
  6
CONTINUOUS
 10
8.499920
 20
10.246720
  0
VERTEX
  8
FOREGROUND
  6
CONTINUOUS
 10
8.499920
 20
-0.753280
  0
VERTEX
  8
FOREGROUND
  6
CONTINUOUS
 10
0.000000
 20
-0.753280
  0
VERTEX
  8
FOREGROUND
  6
CONTINUOUS
 10
0.000000
 20
10.246720
  0
SEQEND
  8
0
  0
SOLID
  8
0
 62
    15
 10
5.886760
 20
7.282880
 11
5.511880
 21
7.923520
 12
5.935160
 22
7.217760
 13
5.560720
 23
7.858840
  0
POLYLINE
  8
0
  6
CONTINUOUS
 66
     1
 40
0.000000
 41
0.000000
  0
VERTEX
  8
0
  6
CONTINUOUS
 10
5.886760
 20
7.282880
  0
VERTEX
  8
0
  6
CONTINUOUS
 10
5.511880
 20
7.923520
  0
VERTEX
  8
0
  6
CONTINUOUS
 10
5.560720
 20
7.858840
  0
VERTEX
  8
0
  6
CONTINUOUS
 10
5.935160
 20
7.217760
  0
VERTEX
  8
0
  6
CONTINUOUS
 10
5.886760
 20
7.282880
  0
SEQEND
  8
0
  0
SOLID
  8
0
 62
    15
 10
5.524200
 20
7.390240
 11
5.149320
 21
8.031320
 12
5.585360
 22
7.390240
 13
5.210920
 23
8.031320
  0
POLYLINE
  8
0
  6
CONTINUOUS
 66
     1
 40
0.000000
 41
0.000000
  0
VERTEX
  8
0
  6
CONTINUOUS
 10
5.524200
 20
7.390240
  0
VERTEX
  8
0
  6
CONTINUOUS
 10
5.149320
 20
8.031320
  0
VERTEX
  8
0
  6
CONTINUOUS
 10
5.210920
 20
8.031320
  0
VERTEX
  8
0
  6
CONTINUOUS
 10
5.585360
 20
7.390240
  0
VERTEX
  8
0
  6
CONTINUOUS
 10
5.524200
 20
7.390240
  0
SEQEND
  8
0
  0
SOLID
  8
0
 62
    15
 10
5.585360
 20
7.390240
 11
5.210920
 21
8.031320
 12
5.662800
 22
7.386280
 13
5.288360
 23
8.027360
  0
POLYLINE
  8
0
  6
CONTINUOUS
 66
     1
 40
0.000000
 41
0.000000
  0
VERTEX
  8
0
  6
CONTINUOUS
 10
5.585360
 20
7.390240
  0
VERTEX
  8
0
  6
CONTINUOUS
 10
5.210920
 20
8.031320
  0
VERTEX
  8
0
  6
CONTINUOUS
 10
5.288360
 20
8.027360
  0
VERTEX
  8
0
  6
CONTINUOUS
 10
5.662800
 20
7.386280
  0
VERTEX
  8
0
  6
CONTINUOUS
 10
5.585360
 20
7.390240
  0
SEQEND
  8
0
  0
SOLID
  8
0
 62
    15
 10
5.662800
 20
7.386280
 11
5.288360
 21
8.027360
 12
5.727040
 22
7.375720
 13
5.352160
 23
8.016360
  0
POLYLINE
  8
0
  6
CONTINUOUS
 66
     1
 40
0.000000
 41
0.000000
  0
VERTEX
  8
0
  6
CONTINUOUS
 10
5.662800
 20
7.386280
  0
VERTEX
  8
0
  6
CONTINUOUS
 10
5.288360
 20
8.027360
  0
VERTEX
  8
0
  6
CONTINUOUS
 10
5.352160
 20
8.016360
  0
VERTEX
  8
0
  6
CONTINUOUS
 10
5.727040
 20
7.375720
  0
VERTEX
  8
0
  6
CONTINUOUS
 10
5.662800
 20
7.386280
  0
SEQEND
  8
0
  0
SOLID
  8
0
 62
    15
 10
5.727040
 20
7.375720
 11
5.352160
 21
8.016360
 12
5.779400
 22
7.359000
 13
5.404520
 23
8.000080
  0
POLYLINE
  8
0
  6
CONTINUOUS
 66
     1
 40
0.000000
 41
0.000000
  0
VERTEX
  8
0
  6
CONTINUOUS
 10
5.727040
 20
7.375720
  0
VERTEX
  8
0
  6
CONTINUOUS
 10
5.352160
 20
8.016360
  0
VERTEX
  8
0
  6
CONTINUOUS
 10
5.404520
 20
8.000080
  0
VERTEX
  8
0
  6
CONTINUOUS
 10
5.779400
 20
7.359000
  0
VERTEX
  8
0
  6
CONTINUOUS
 10
5.727040
 20
7.375720
  0
SEQEND
  8
0
  0
SOLID
  8
0
 62
    15
 10
5.146680
 20
7.747520
 11
4.772240
 21
8.388600
 12
5.524200
 22
7.747520
 13
5.149320
 23
8.388600
  0
POLYLINE
  8
0
  6
CONTINUOUS
 66
     1
 40
0.000000
 41
0.000000
  0
VERTEX
  8
0
  6
CONTINUOUS
 10
5.146680
 20
7.747520
  0
VERTEX
  8
0
  6
CONTINUOUS
 10
4.772240
 20
8.388600
  0
VERTEX
  8
0
  6
CONTINUOUS
 10
5.149320
 20
8.388600
  0
VERTEX
  8
0
  6
CONTINUOUS
 10
5.524200
 20
7.747520
  0
VERTEX
  8
0
  6
CONTINUOUS
 10
5.146680
 20
7.747520
  0
SEQEND
  8
0
  0
SOLID
  8
0
 62
    15
 10
5.779400
 20
7.359000
 11
5.404520
 21
8.000080
 12
5.822520
 22
7.337440
 13
5.447640
 23
7.978520
  0
POLYLINE
  8
0
  6
CONTINUOUS
 66
     1
 40
0.000000
 41
0.000000
  0
VERTEX
  8
0
  6
CONTINUOUS
 10
5.779400
 20
7.359000
  0
VERTEX
  8
0
  6
CONTINUOUS
 10
5.404520
 20
8.000080
  0
VERTEX
  8
0
  6
CONTINUOUS
 10
5.447640
 20
7.978520
  0
VERTEX
  8
0
  6
CONTINUOUS
 10
5.822520
 20
7.337440
  0
VERTEX
  8
0
  6
CONTINUOUS
 10
5.779400
 20
7.359000
  0
SEQEND
  8
0
  0
SOLID
  8
0
 62
    15
 10
5.822520
 20
7.337440
 11
5.447640
 21
7.978520
 12
5.857720
 22
7.311920
 13
5.482840
 23
7.952560
  0
POLYLINE
  8
0
  6
CONTINUOUS
 66
     1
 40
0.000000
 41
0.000000
  0
VERTEX
  8
0
  6
CONTINUOUS
 10
5.822520
 20
7.337440
  0
VERTEX
  8
0
  6
CONTINUOUS
 10
5.447640
 20
7.978520
  0
VERTEX
  8
0
  6
CONTINUOUS
 10
5.482840
 20
7.952560
  0
VERTEX
  8
0
  6
CONTINUOUS
 10
5.857720
 20
7.311920
  0
VERTEX
  8
0
  6
CONTINUOUS
 10
5.822520
 20
7.337440
  0
SEQEND
  8
0
  0
SOLID
  8
0
 62
    15
 10
5.857720
 20
7.311920
 11
5.482840
 21
7.952560
 12
5.886760
 22
7.282880
 13
5.511880
 23
7.923520
  0
POLYLINE
  8
0
  6
CONTINUOUS
 66
     1
 40
0.000000
 41
0.000000
  0
VERTEX
  8
0
  6
CONTINUOUS
 10
5.857720
 20
7.311920
  0
VERTEX
  8
0
  6
CONTINUOUS
 10
5.482840
 20
7.952560
  0
VERTEX
  8
0
  6
CONTINUOUS
 10
5.511880
 20
7.923520
  0
VERTEX
  8
0
  6
CONTINUOUS
 10
5.886760
 20
7.282880
  0
VERTEX
  8
0
  6
CONTINUOUS
 10
5.857720
 20
7.311920
  0
SEQEND
  8
0
  0
SOLID
  8
0
 62
    15
 10
5.146680
 20
6.698120
 11
4.772240
 21
7.339200
 12
5.146680
 22
7.747520
 13
4.772240
 23
8.388600
  0
POLYLINE
  8
0
  6
CONTINUOUS
 66
     1
 40
0.000000
 41
0.000000
  0
VERTEX
  8
0
  6
CONTINUOUS
 10
5.146680
 20
6.698120
  0
VERTEX
  8
0
  6
CONTINUOUS
 10
4.772240
 20
7.339200
  0
VERTEX
  8
0
  6
CONTINUOUS
 10
4.772240
 20
8.388600
  0
VERTEX
  8
0
  6
CONTINUOUS
 10
5.146680
 20
7.747520
  0
VERTEX
  8
0
  6
CONTINUOUS
 10
5.146680
 20
6.698120
  0
SEQEND
  8
0
  0
SOLID
  8
0
 62
    15
 10
5.935160
 20
7.217760
 11
5.560720
 21
7.858840
 12
5.946600
 22
7.201040
 13
5.572160
 23
7.842120
  0
POLYLINE
  8
0
  6
CONTINUOUS
 66
     1
 40
0.000000
 41
0.000000
  0
VERTEX
  8
0
  6
CONTINUOUS
 10
5.935160
 20
7.217760
  0
VERTEX
  8
0
  6
CONTINUOUS
 10
5.560720
 20
7.858840
  0
VERTEX
  8
0
  6
CONTINUOUS
 10
5.572160
 20
7.842120
  0
VERTEX
  8
0
  6
CONTINUOUS
 10
5.946600
 20
7.201040
  0
VERTEX
  8
0
  6
CONTINUOUS
 10
5.935160
 20
7.217760
  0
SEQEND
  8
0
  0
SOLID
  8
0
 62
    15
 10
5.946600
 20
7.201040
 11
5.572160
 21
7.842120
 12
5.958480
 22
7.184320
 13
5.583600
 23
7.824960
  0
POLYLINE
  8
0
  6
CONTINUOUS
 66
     1
 40
0.000000
 41
0.000000
  0
VERTEX
  8
0
  6
CONTINUOUS
 10
5.946600
 20
7.201040
  0
VERTEX
  8
0
  6
CONTINUOUS
 10
5.572160
 20
7.842120
  0
VERTEX
  8
0
  6
CONTINUOUS
 10
5.583600
 20
7.824960
  0
VERTEX
  8
0
  6
CONTINUOUS
 10
5.958480
 20
7.184320
  0
VERTEX
  8
0
  6
CONTINUOUS
 10
5.946600
 20
7.201040
  0
SEQEND
  8
0
  0
SOLID
  8
0
 62
    15
 10
5.958480
 20
7.184320
 11
5.583600
 21
7.824960
 12
5.983120
 22
7.150440
 13
5.608240
 23
7.791080
  0
POLYLINE
  8
0
  6
CONTINUOUS
 66
     1
 40
0.000000
 41
0.000000
  0
VERTEX
  8
0
  6
CONTINUOUS
 10
5.958480
 20
7.184320
  0
VERTEX
  8
0
  6
CONTINUOUS
 10
5.583600
 20
7.824960
  0
VERTEX
  8
0
  6
CONTINUOUS
 10
5.608240
 20
7.791080
  0
VERTEX
  8
0
  6
CONTINUOUS
 10
5.983120
 20
7.150440
  0
VERTEX
  8
0
  6
CONTINUOUS
 10
5.958480
 20
7.184320
  0
SEQEND
  8
0
  0
SOLID
  8
0
 62
    15
 10
5.983120
 20
7.150440
 11
5.608240
 21
7.791080
 12
6.011280
 22
7.117880
 13
5.636400
 23
7.758520
  0
POLYLINE
  8
0
  6
CONTINUOUS
 66
     1
 40
0.000000
 41
0.000000
  0
VERTEX
  8
0
  6
CONTINUOUS
 10
5.983120
 20
7.150440
  0
VERTEX
  8
0
  6
CONTINUOUS
 10
5.608240
 20
7.791080
  0
VERTEX
  8
0
  6
CONTINUOUS
 10
5.636400
 20
7.758520
  0
VERTEX
  8
0
  6
CONTINUOUS
 10
6.011280
 20
7.117880
  0
VERTEX
  8
0
  6
CONTINUOUS
 10
5.983120
 20
7.150440
  0
SEQEND
  8
0
  0
SOLID
  8
0
 62
    15
 10
6.011280
 20
7.117880
 11
5.636400
 21
7.758520
 12
6.045160
 22
7.087080
 13
5.670280
 23
7.727720
  0
POLYLINE
  8
0
  6
CONTINUOUS
 66
     1
 40
0.000000
 41
0.000000
  0
VERTEX
  8
0
  6
CONTINUOUS
 10
6.011280
 20
7.117880
  0
VERTEX
  8
0
  6
CONTINUOUS
 10
5.636400
 20
7.758520
  0
VERTEX
  8
0
  6
CONTINUOUS
 10
5.670280
 20
7.727720
  0
VERTEX
  8
0
  6
CONTINUOUS
 10
6.045160
 20
7.087080
  0
VERTEX
  8
0
  6
CONTINUOUS
 10
6.011280
 20
7.117880
  0
SEQEND
  8
0
  0
SOLID
  8
0
 62
    15
 10
6.045160
 20
7.087080
 11
5.670280
 21
7.727720
 12
6.086080
 22
7.058920
 13
5.711200
 23
7.699560
  0
POLYLINE
  8
0
  6
CONTINUOUS
 66
     1
 40
0.000000
 41
0.000000
  0
VERTEX
  8
0
  6
CONTINUOUS
 10
6.045160
 20
7.087080
  0
VERTEX
  8
0
  6
CONTINUOUS
 10
5.670280
 20
7.727720
  0
VERTEX
  8
0
  6
CONTINUOUS
 10
5.711200
 20
7.699560
  0
VERTEX
  8
0
  6
CONTINUOUS
 10
6.086080
 20
7.058920
  0
VERTEX
  8
0
  6
CONTINUOUS
 10
6.045160
 20
7.087080
  0
SEQEND
  8
0
  0
SOLID
  8
0
 62
    15
 10
6.086080
 20
7.058920
 11
5.711200
 21
7.699560
 12
6.136240
 22
7.034280
 13
5.761800
 23
7.675360
  0
POLYLINE
  8
0
  6
CONTINUOUS
 66
     1
 40
0.000000
 41
0.000000
  0
VERTEX
  8
0
  6
CONTINUOUS
 10
6.086080
 20
7.058920
  0
VERTEX
  8
0
  6
CONTINUOUS
 10
5.711200
 20
7.699560
  0
VERTEX
  8
0
  6
CONTINUOUS
 10
5.761800
 20
7.675360
  0
VERTEX
  8
0
  6
CONTINUOUS
 10
6.136240
 20
7.034280
  0
VERTEX
  8
0
  6
CONTINUOUS
 10
6.086080
 20
7.058920
  0
SEQEND
  8
0
  0
SOLID
  8
0
 62
    15
 10
6.136240
 20
7.034280
 11
5.761800
 21
7.675360
 12
6.197840
 22
7.014480
 13
5.822960
 23
7.655120
  0
POLYLINE
  8
0
  6
CONTINUOUS
 66
     1
 40
0.000000
 41
0.000000
  0
VERTEX
  8
0
  6
CONTINUOUS
 10
6.136240
 20
7.034280
  0
VERTEX
  8
0
  6
CONTINUOUS
 10
5.761800
 20
7.675360
  0
VERTEX
  8
0
  6
CONTINUOUS
 10
5.822960
 20
7.655120
  0
VERTEX
  8
0
  6
CONTINUOUS
 10
6.197840
 20
7.014480
  0
VERTEX
  8
0
  6
CONTINUOUS
 10
6.136240
 20
7.034280
  0
SEQEND
  8
0
  0
SOLID
  8
0
 62
    15
 10
6.197840
 20
7.014480
 11
5.822960
 21
7.655120
 12
6.272200
 22
6.999520
 13
5.897320
 23
7.640600
  0
POLYLINE
  8
0
  6
CONTINUOUS
 66
     1
 40
0.000000
 41
0.000000
  0
VERTEX
  8
0
  6
CONTINUOUS
 10
6.197840
 20
7.014480
  0
VERTEX
  8
0
  6
CONTINUOUS
 10
5.822960
 20
7.655120
  0
VERTEX
  8
0
  6
CONTINUOUS
 10
5.897320
 20
7.640600
  0
VERTEX
  8
0
  6
CONTINUOUS
 10
6.272200
 20
6.999520
  0
VERTEX
  8
0
  6
CONTINUOUS
 10
6.197840
 20
7.014480
  0
SEQEND
  8
0
  0
POLYLINE
  8
0
  6
CONTINUOUS
 66
     1
 40
0.000000
 41
0.000000
  0
VERTEX
  8
0
  6
CONTINUOUS
 10
6.273520
 20
6.996880
  0
VERTEX
  8
0
  6
CONTINUOUS
 10
6.273520
 20
6.698120
  0
VERTEX
  8
0
  6
CONTINUOUS
 10
5.146680
 20
6.698120
  0
VERTEX
  8
0
  6
CONTINUOUS
 10
5.146680
 20
7.747520
  0
VERTEX
  8
0
  6
CONTINUOUS
 10
5.524200
 20
7.747520
  0
VERTEX
  8
0
  6
CONTINUOUS
 10
5.524200
 20
7.390240
  0
VERTEX
  8
0
  6
CONTINUOUS
 10
5.585360
 20
7.390240
  0
VERTEX
  8
0
  6
CONTINUOUS
 10
5.662800
 20
7.386280
  0
VERTEX
  8
0
  6
CONTINUOUS
 10
5.727040
 20
7.375720
  0
VERTEX
  8
0
  6
CONTINUOUS
 10
5.779400
 20
7.359000
  0
VERTEX
  8
0
  6
CONTINUOUS
 10
5.822520
 20
7.337440
  0
VERTEX
  8
0
  6
CONTINUOUS
 10
5.857720
 20
7.311920
  0
VERTEX
  8
0
  6
CONTINUOUS
 10
5.886760
 20
7.282880
  0
VERTEX
  8
0
  6
CONTINUOUS
 10
5.935160
 20
7.217760
  0
VERTEX
  8
0
  6
CONTINUOUS
 10
5.946600
 20
7.201040
  0
VERTEX
  8
0
  6
CONTINUOUS
 10
5.958480
 20
7.184320
  0
VERTEX
  8
0
  6
CONTINUOUS
 10
5.983120
 20
7.150440
  0
VERTEX
  8
0
  6
CONTINUOUS
 10
6.011280
 20
7.117880
  0
VERTEX
  8
0
  6
CONTINUOUS
 10
6.045160
 20
7.087080
  0
VERTEX
  8
0
  6
CONTINUOUS
 10
6.086080
 20
7.058920
  0
VERTEX
  8
0
  6
CONTINUOUS
 10
6.136240
 20
7.034280
  0
VERTEX
  8
0
  6
CONTINUOUS
 10
6.197840
 20
7.014480
  0
VERTEX
  8
0
  6
CONTINUOUS
 10
6.272200
 20
6.999520
  0
VERTEX
  8
0
  6
CONTINUOUS
 10
6.273520
 20
6.996880
  0
SEQEND
  8
0
  0
SOLID
  8
0
 62
    15
 10
5.146680
 20
3.069880
 11
4.788520
 21
3.700840
 12
6.273520
 22
3.069880
 13
5.914920
 23
3.700840
  0
POLYLINE
  8
0
  6
CONTINUOUS
 66
     1
 40
0.000000
 41
0.000000
  0
VERTEX
  8
0
  6
CONTINUOUS
 10
5.146680
 20
3.069880
  0
VERTEX
  8
0
  6
CONTINUOUS
 10
4.788520
 20
3.700840
  0
VERTEX
  8
0
  6
CONTINUOUS
 10
5.914920
 20
3.700840
  0
VERTEX
  8
0
  6
CONTINUOUS
 10
6.273520
 20
3.069880
  0
VERTEX
  8
0
  6
CONTINUOUS
 10
5.146680
 20
3.069880
  0
SEQEND
  8
0
  0
SOLID
  8
0
 62
    15
 10
5.146680
 20
2.020480
 11
4.788520
 21
2.651440
 12
5.146680
 22
3.069880
 13
4.788520
 23
3.700840
  0
POLYLINE
  8
0
  6
CONTINUOUS
 66
     1
 40
0.000000
 41
0.000000
  0
VERTEX
  8
0
  6
CONTINUOUS
 10
5.146680
 20
2.020480
  0
VERTEX
  8
0
  6
CONTINUOUS
 10
4.788520
 20
2.651440
  0
VERTEX
  8
0
  6
CONTINUOUS
 10
4.788520
 20
3.700840
  0
VERTEX
  8
0
  6
CONTINUOUS
 10
5.146680
 20
3.069880
  0
VERTEX
  8
0
  6
CONTINUOUS
 10
5.146680
 20
2.020480
  0
SEQEND
  8
0
  0
POLYLINE
  8
0
  6
CONTINUOUS
 66
     1
 40
0.000000
 41
0.000000
  0
VERTEX
  8
0
  6
CONTINUOUS
 10
6.272200
 20
2.768480
  0
VERTEX
  8
0
  6
CONTINUOUS
 10
6.197840
 20
2.753520
  0
VERTEX
  8
0
  6
CONTINUOUS
 10
6.136240
 20
2.733720
  0
VERTEX
  8
0
  6
CONTINUOUS
 10
6.086080
 20
2.709080
  0
VERTEX
  8
0
  6
CONTINUOUS
 10
6.045160
 20
2.680920
  0
VERTEX
  8
0
  6
CONTINUOUS
 10
6.011280
 20
2.650120
  0
VERTEX
  8
0
  6
CONTINUOUS
 10
5.983120
 20
2.617560
  0
VERTEX
  8
0
  6
CONTINUOUS
 10
5.958480
 20
2.583680
  0
VERTEX
  8
0
  6
CONTINUOUS
 10
5.946600
 20
2.566960
  0
VERTEX
  8
0
  6
CONTINUOUS
 10
5.935160
 20
2.550240
  0
VERTEX
  8
0
  6
CONTINUOUS
 10
5.886760
 20
2.485560
  0
VERTEX
  8
0
  6
CONTINUOUS
 10
5.857720
 20
2.456080
  0
VERTEX
  8
0
  6
CONTINUOUS
 10
5.822520
 20
2.430560
  0
VERTEX
  8
0
  6
CONTINUOUS
 10
5.779400
 20
2.409000
  0
VERTEX
  8
0
  6
CONTINUOUS
 10
5.727040
 20
2.392280
  0
VERTEX
  8
0
  6
CONTINUOUS
 10
5.662800
 20
2.381720
  0
VERTEX
  8
0
  6
CONTINUOUS
 10
5.585360
 20
2.377760
  0
VERTEX
  8
0
  6
CONTINUOUS
 10
5.524200
 20
2.377760
  0
VERTEX
  8
0
  6
CONTINUOUS
 10
5.524200
 20
2.020480
  0
VERTEX
  8
0
  6
CONTINUOUS
 10
5.146680
 20
2.020480
  0
VERTEX
  8
0
  6
CONTINUOUS
 10
5.146680
 20
3.069880
  0
VERTEX
  8
0
  6
CONTINUOUS
 10
6.273520
 20
3.069880
  0
VERTEX
  8
0
  6
CONTINUOUS
 10
6.273520
 20
2.771120
  0
VERTEX
  8
0
  6
CONTINUOUS
 10
6.272200
 20
2.768480
  0
SEQEND
  8
0
  0
SOLID
  8
0
 62
    15
 10
4.520560
 20
8.630160
 11
4.161080
 21
9.255400
 12
4.604160
 22
8.604640
 13
4.244240
 23
9.229880
  0
POLYLINE
  8
0
  6
CONTINUOUS
 66
     1
 40
0.000000
 41
0.000000
  0
VERTEX
  8
0
  6
CONTINUOUS
 10
4.520560
 20
8.630160
  0
VERTEX
  8
0
  6
CONTINUOUS
 10
4.161080
 20
9.255400
  0
VERTEX
  8
0
  6
CONTINUOUS
 10
4.244240
 20
9.229880
  0
VERTEX
  8
0
  6
CONTINUOUS
 10
4.604160
 20
8.604640
  0
VERTEX
  8
0
  6
CONTINUOUS
 10
4.520560
 20
8.630160
  0
SEQEND
  8
0
  0
SOLID
  8
0
 62
    15
 10
3.492720
 20
8.942120
 11
3.133240
 21
9.567360
 12
3.833720
 22
8.942120
 13
3.474240
 23
9.567360
  0
POLYLINE
  8
0
  6
CONTINUOUS
 66
     1
 40
0.000000
 41
0.000000
  0
VERTEX
  8
0
  6
CONTINUOUS
 10
3.492720
 20
8.942120
  0
VERTEX
  8
0
  6
CONTINUOUS
 10
3.133240
 20
9.567360
  0
VERTEX
  8
0
  6
CONTINUOUS
 10
3.474240
 20
9.567360
  0
VERTEX
  8
0
  6
CONTINUOUS
 10
3.833720
 20
8.942120
  0
VERTEX
  8
0
  6
CONTINUOUS
 10
3.492720
 20
8.942120
  0
SEQEND
  8
0
  0
SOLID
  8
0
 62
    15
 10
3.901040
 20
8.793400
 11
3.541560
 21
9.418640
 12
3.954280
 22
8.742360
 13
3.594360
 23
9.367160
  0
POLYLINE
  8
0
  6
CONTINUOUS
 66
     1
 40
0.000000
 41
0.000000
  0
VERTEX
  8
0
  6
CONTINUOUS
 10
3.901040
 20
8.793400
  0
VERTEX
  8
0
  6
CONTINUOUS
 10
3.541560
 20
9.418640
  0
VERTEX
  8
0
  6
CONTINUOUS
 10
3.594360
 20
9.367160
  0
VERTEX
  8
0
  6
CONTINUOUS
 10
3.954280
 20
8.742360
  0
VERTEX
  8
0
  6
CONTINUOUS
 10
3.901040
 20
8.793400
  0
SEQEND
  8
0
  0
SOLID
  8
0
 62
    15
 10
3.954280
 20
8.742360
 11
3.594360
 21
9.367160
 12
4.018080
 22
8.704080
 13
3.658600
 23
9.329320
  0
POLYLINE
  8
0
  6
CONTINUOUS
 66
     1
 40
0.000000
 41
0.000000
  0
VERTEX
  8
0
  6
CONTINUOUS
 10
3.954280
 20
8.742360
  0
VERTEX
  8
0
  6
CONTINUOUS
 10
3.594360
 20
9.367160
  0
VERTEX
  8
0
  6
CONTINUOUS
 10
3.658600
 20
9.329320
  0
VERTEX
  8
0
  6
CONTINUOUS
 10
4.018080
 20
8.704080
  0
VERTEX
  8
0
  6
CONTINUOUS
 10
3.954280
 20
8.742360
  0
SEQEND
  8
0
  0
SOLID
  8
0
 62
    15
 10
4.018080
 20
8.704080
 11
3.658600
 21
9.329320
 12
4.090680
 22
8.677240
 13
3.731200
 23
9.302480
  0
POLYLINE
  8
0
  6
CONTINUOUS
 66
     1
 40
0.000000
 41
0.000000
  0
VERTEX
  8
0
  6
CONTINUOUS
 10
4.018080
 20
8.704080
  0
VERTEX
  8
0
  6
CONTINUOUS
 10
3.658600
 20
9.329320
  0
VERTEX
  8
0
  6
CONTINUOUS
 10
3.731200
 20
9.302480
  0
VERTEX
  8
0
  6
CONTINUOUS
 10
4.090680
 20
8.677240
  0
VERTEX
  8
0
  6
CONTINUOUS
 10
4.018080
 20
8.704080
  0
SEQEND
  8
0
  0
SOLID
  8
0
 62
    15
 10
4.090680
 20
8.677240
 11
3.731200
 21
9.302480
 12
4.170320
 22
8.660080
 13
3.810840
 23
9.285320
  0
POLYLINE
  8
0
  6
CONTINUOUS
 66
     1
 40
0.000000
 41
0.000000
  0
VERTEX
  8
0
  6
CONTINUOUS
 10
4.090680
 20
8.677240
  0
VERTEX
  8
0
  6
CONTINUOUS
 10
3.731200
 20
9.302480
  0
VERTEX
  8
0
  6
CONTINUOUS
 10
3.810840
 20
9.285320
  0
VERTEX
  8
0
  6
CONTINUOUS
 10
4.170320
 20
8.660080
  0
VERTEX
  8
0
  6
CONTINUOUS
 10
4.090680
 20
8.677240
  0
SEQEND
  8
0
  0
SOLID
  8
0
 62
    15
 10
4.170320
 20
8.660080
 11
3.810840
 21
9.285320
 12
4.343240
 22
8.648640
 13
3.983760
 23
9.273880
  0
POLYLINE
  8
0
  6
CONTINUOUS
 66
     1
 40
0.000000
 41
0.000000
  0
VERTEX
  8
0
  6
CONTINUOUS
 10
4.170320
 20
8.660080
  0
VERTEX
  8
0
  6
CONTINUOUS
 10
3.810840
 20
9.285320
  0
VERTEX
  8
0
  6
CONTINUOUS
 10
3.983760
 20
9.273880
  0
VERTEX
  8
0
  6
CONTINUOUS
 10
4.343240
 20
8.648640
  0
VERTEX
  8
0
  6
CONTINUOUS
 10
4.170320
 20
8.660080
  0
SEQEND
  8
0
  0
SOLID
  8
0
 62
    15
 10
4.343240
 20
8.648640
 11
3.983760
 21
9.273880
 12
4.432560
 22
8.644240
 13
4.073080
 23
9.269480
  0
POLYLINE
  8
0
  6
CONTINUOUS
 66
     1
 40
0.000000
 41
0.000000
  0
VERTEX
  8
0
  6
CONTINUOUS
 10
4.343240
 20
8.648640
  0
VERTEX
  8
0
  6
CONTINUOUS
 10
3.983760
 20
9.273880
  0
VERTEX
  8
0
  6
CONTINUOUS
 10
4.073080
 20
9.269480
  0
VERTEX
  8
0
  6
CONTINUOUS
 10
4.432560
 20
8.644240
  0
VERTEX
  8
0
  6
CONTINUOUS
 10
4.343240
 20
8.648640
  0
SEQEND
  8
0
  0
SOLID
  8
0
 62
    15
 10
4.432560
 20
8.644240
 11
4.073080
 21
9.269480
 12
4.520560
 22
8.630160
 13
4.161080
 23
9.255400
  0
POLYLINE
  8
0
  6
CONTINUOUS
 66
     1
 40
0.000000
 41
0.000000
  0
VERTEX
  8
0
  6
CONTINUOUS
 10
4.432560
 20
8.644240
  0
VERTEX
  8
0
  6
CONTINUOUS
 10
4.073080
 20
9.269480
  0
VERTEX
  8
0
  6
CONTINUOUS
 10
4.161080
 20
9.255400
  0
VERTEX
  8
0
  6
CONTINUOUS
 10
4.520560
 20
8.630160
  0
VERTEX
  8
0
  6
CONTINUOUS
 10
4.432560
 20
8.644240
  0
SEQEND
  8
0
  0
SOLID
  8
0
 62
    15
 10
3.860120
 20
8.859400
 11
3.500640
 21
9.484640
 12
3.901040
 22
8.793400
 13
3.541560
 23
9.418640
  0
POLYLINE
  8
0
  6
CONTINUOUS
 66
     1
 40
0.000000
 41
0.000000
  0
VERTEX
  8
0
  6
CONTINUOUS
 10
3.860120
 20
8.859400
  0
VERTEX
  8
0
  6
CONTINUOUS
 10
3.500640
 20
9.484640
  0
VERTEX
  8
0
  6
CONTINUOUS
 10
3.541560
 20
9.418640
  0
VERTEX
  8
0
  6
CONTINUOUS
 10
3.901040
 20
8.793400
  0
VERTEX
  8
0
  6
CONTINUOUS
 10
3.860120
 20
8.859400
  0
SEQEND
  8
0
  0
SOLID
  8
0
 62
    15
 10
4.604160
 20
8.604640
 11
4.244240
 21
9.229880
 12
4.679400
 22
8.566800
 13
4.319920
 23
9.192040
  0
POLYLINE
  8
0
  6
CONTINUOUS
 66
     1
 40
0.000000
 41
0.000000
  0
VERTEX
  8
0
  6
CONTINUOUS
 10
4.604160
 20
8.604640
  0
VERTEX
  8
0
  6
CONTINUOUS
 10
4.244240
 20
9.229880
  0
VERTEX
  8
0
  6
CONTINUOUS
 10
4.319920
 20
9.192040
  0
VERTEX
  8
0
  6
CONTINUOUS
 10
4.679400
 20
8.566800
  0
VERTEX
  8
0
  6
CONTINUOUS
 10
4.604160
 20
8.604640
  0
SEQEND
  8
0
  0
SOLID
  8
0
 62
    15
 10
4.679400
 20
8.566800
 11
4.319920
 21
9.192040
 12
4.744080
 22
8.514880
 13
4.384600
 23
9.140120
  0
POLYLINE
  8
0
  6
CONTINUOUS
 66
     1
 40
0.000000
 41
0.000000
  0
VERTEX
  8
0
  6
CONTINUOUS
 10
4.679400
 20
8.566800
  0
VERTEX
  8
0
  6
CONTINUOUS
 10
4.319920
 20
9.192040
  0
VERTEX
  8
0
  6
CONTINUOUS
 10
4.384600
 20
9.140120
  0
VERTEX
  8
0
  6
CONTINUOUS
 10
4.744080
 20
8.514880
  0
VERTEX
  8
0
  6
CONTINUOUS
 10
4.679400
 20
8.566800
  0
SEQEND
  8
0
  0
SOLID
  8
0
 62
    15
 10
4.744080
 20
8.514880
 11
4.384600
 21
9.140120
 12
4.794680
 22
8.447560
 13
4.435200
 23
9.072800
  0
POLYLINE
  8
0
  6
CONTINUOUS
 66
     1
 40
0.000000
 41
0.000000
  0
VERTEX
  8
0
  6
CONTINUOUS
 10
4.744080
 20
8.514880
  0
VERTEX
  8
0
  6
CONTINUOUS
 10
4.384600
 20
9.140120
  0
VERTEX
  8
0
  6
CONTINUOUS
 10
4.435200
 20
9.072800
  0
VERTEX
  8
0
  6
CONTINUOUS
 10
4.794680
 20
8.447560
  0
VERTEX
  8
0
  6
CONTINUOUS
 10
4.744080
 20
8.514880
  0
SEQEND
  8
0
  0
SOLID
  8
0
 62
    15
 10
4.841320
 20
8.261000
 11
4.481840
 21
8.886240
 12
5.148880
 22
8.261000
 13
4.789400
 23
8.886240
  0
POLYLINE
  8
0
  6
CONTINUOUS
 66
     1
 40
0.000000
 41
0.000000
  0
VERTEX
  8
0
  6
CONTINUOUS
 10
4.841320
 20
8.261000
  0
VERTEX
  8
0
  6
CONTINUOUS
 10
4.481840
 20
8.886240
  0
VERTEX
  8
0
  6
CONTINUOUS
 10
4.789400
 20
8.886240
  0
VERTEX
  8
0
  6
CONTINUOUS
 10
5.148880
 20
8.261000
  0
VERTEX
  8
0
  6
CONTINUOUS
 10
4.841320
 20
8.261000
  0
SEQEND
  8
0
  0
SOLID
  8
0
 62
    15
 10
4.651240
 20
3.071640
 11
4.291760
 21
3.696880
 12
5.144040
 22
3.071640
 13
4.784560
 23
3.696880
  0
POLYLINE
  8
0
  6
CONTINUOUS
 66
     1
 40
0.000000
 41
0.000000
  0
VERTEX
  8
0
  6
CONTINUOUS
 10
4.651240
 20
3.071640
  0
VERTEX
  8
0
  6
CONTINUOUS
 10
4.291760
 20
3.696880
  0
VERTEX
  8
0
  6
CONTINUOUS
 10
4.784560
 20
3.696880
  0
VERTEX
  8
0
  6
CONTINUOUS
 10
5.144040
 20
3.071640
  0
VERTEX
  8
0
  6
CONTINUOUS
 10
4.651240
 20
3.071640
  0
SEQEND
  8
0
  0
SOLID
  8
0
 62
    15
 10
5.144040
 20
1.411960
 11
4.784560
 21
2.036760
 12
5.147120
 22
1.409320
 13
4.787640
 23
2.034560
  0
POLYLINE
  8
0
  6
CONTINUOUS
 66
     1
 40
0.000000
 41
0.000000
  0
VERTEX
  8
0
  6
CONTINUOUS
 10
5.144040
 20
1.411960
  0
VERTEX
  8
0
  6
CONTINUOUS
 10
4.784560
 20
2.036760
  0
VERTEX
  8
0
  6
CONTINUOUS
 10
4.787640
 20
2.034560
  0
VERTEX
  8
0
  6
CONTINUOUS
 10
5.147120
 20
1.409320
  0
VERTEX
  8
0
  6
CONTINUOUS
 10
5.144040
 20
1.411960
  0
SEQEND
  8
0
  0
SOLID
  8
0
 62
    15
 10
3.490080
 20
0.726880
 11
3.130600
 21
1.352120
 12
3.154360
 22
4.834280
 13
2.794880
 23
5.459080
  0
POLYLINE
  8
0
  6
CONTINUOUS
 66
     1
 40
0.000000
 41
0.000000
  0
VERTEX
  8
0
  6
CONTINUOUS
 10
3.490080
 20
0.726880
  0
VERTEX
  8
0
  6
CONTINUOUS
 10
3.130600
 20
1.352120
  0
VERTEX
  8
0
  6
CONTINUOUS
 10
2.794880
 20
5.459080
  0
VERTEX
  8
0
  6
CONTINUOUS
 10
3.154360
 20
4.834280
  0
VERTEX
  8
0
  6
CONTINUOUS
 10
3.490080
 20
0.726880
  0
SEQEND
  8
0
  0
SOLID
  8
0
 62
    15
 10
3.490080
 20
8.938600
 11
3.130600
 21
9.563400
 12
3.492720
 22
8.942120
 13
3.133240
 23
9.567360
  0
POLYLINE
  8
0
  6
CONTINUOUS
 66
     1
 40
0.000000
 41
0.000000
  0
VERTEX
  8
0
  6
CONTINUOUS
 10
3.490080
 20
8.938600
  0
VERTEX
  8
0
  6
CONTINUOUS
 10
3.130600
 20
9.563400
  0
VERTEX
  8
0
  6
CONTINUOUS
 10
3.133240
 20
9.567360
  0
VERTEX
  8
0
  6
CONTINUOUS
 10
3.492720
 20
8.942120
  0
VERTEX
  8
0
  6
CONTINUOUS
 10
3.490080
 20
8.938600
  0
SEQEND
  8
0
  0
SOLID
  8
0
 62
    15
 10
3.154360
 20
4.834280
 11
2.794880
 21
5.459080
 12
3.490080
 22
8.938600
 13
3.130600
 23
9.563400
  0
POLYLINE
  8
0
  6
CONTINUOUS
 66
     1
 40
0.000000
 41
0.000000
  0
VERTEX
  8
0
  6
CONTINUOUS
 10
3.154360
 20
4.834280
  0
VERTEX
  8
0
  6
CONTINUOUS
 10
2.794880
 20
5.459080
  0
VERTEX
  8
0
  6
CONTINUOUS
 10
3.130600
 20
9.563400
  0
VERTEX
  8
0
  6
CONTINUOUS
 10
3.490080
 20
8.938600
  0
VERTEX
  8
0
  6
CONTINUOUS
 10
3.154360
 20
4.834280
  0
SEQEND
  8
0
  0
POLYLINE
  8
0
  6
CONTINUOUS
 66
     1
 40
0.000000
 41
0.000000
  0
VERTEX
  8
0
  6
CONTINUOUS
 10
3.492720
 20
8.942120
  0
VERTEX
  8
0
  6
CONTINUOUS
 10
3.833720
 20
8.942120
  0
VERTEX
  8
0
  6
CONTINUOUS
 10
3.860120
 20
8.859400
  0
VERTEX
  8
0
  6
CONTINUOUS
 10
3.901040
 20
8.793400
  0
VERTEX
  8
0
  6
CONTINUOUS
 10
3.954280
 20
8.742360
  0
VERTEX
  8
0
  6
CONTINUOUS
 10
4.018080
 20
8.704080
  0
VERTEX
  8
0
  6
CONTINUOUS
 10
4.090680
 20
8.677240
  0
VERTEX
  8
0
  6
CONTINUOUS
 10
4.170320
 20
8.660080
  0
VERTEX
  8
0
  6
CONTINUOUS
 10
4.343240
 20
8.648640
  0
VERTEX
  8
0
  6
CONTINUOUS
 10
4.432560
 20
8.644240
  0
VERTEX
  8
0
  6
CONTINUOUS
 10
4.520560
 20
8.630160
  0
VERTEX
  8
0
  6
CONTINUOUS
 10
4.604160
 20
8.604640
  0
VERTEX
  8
0
  6
CONTINUOUS
 10
4.679400
 20
8.566800
  0
VERTEX
  8
0
  6
CONTINUOUS
 10
4.744080
 20
8.514880
  0
VERTEX
  8
0
  6
CONTINUOUS
 10
4.794680
 20
8.447560
  0
VERTEX
  8
0
  6
CONTINUOUS
 10
4.828120
 20
8.363520
  0
VERTEX
  8
0
  6
CONTINUOUS
 10
4.841320
 20
8.261000
  0
VERTEX
  8
0
  6
CONTINUOUS
 10
5.148880
 20
8.261000
  0
VERTEX
  8
0
  6
CONTINUOUS
 10
5.148880
 20
6.698560
  0
VERTEX
  8
0
  6
CONTINUOUS
 10
4.651240
 20
6.698560
  0
VERTEX
  8
0
  6
CONTINUOUS
 10
4.651240
 20
3.071640
  0
VERTEX
  8
0
  6
CONTINUOUS
 10
5.144040
 20
3.071640
  0
VERTEX
  8
0
  6
CONTINUOUS
 10
5.144040
 20
1.411960
  0
VERTEX
  8
0
  6
CONTINUOUS
 10
5.147120
 20
1.409320
  0
VERTEX
  8
0
  6
CONTINUOUS
 10
4.840000
 20
1.409320
  0
VERTEX
  8
0
  6
CONTINUOUS
 10
4.826360
 20
1.306800
  0
VERTEX
  8
0
  6
CONTINUOUS
 10
4.792920
 20
1.222760
  0
VERTEX
  8
0
  6
CONTINUOUS
 10
4.742320
 20
1.155440
  0
VERTEX
  8
0
  6
CONTINUOUS
 10
4.677640
 20
1.103520
  0
VERTEX
  8
0
  6
CONTINUOUS
 10
4.602400
 20
1.065680
  0
VERTEX
  8
0
  6
CONTINUOUS
 10
4.518800
 20
1.040600
  0
VERTEX
  8
0
  6
CONTINUOUS
 10
4.431240
 20
1.026080
  0
VERTEX
  8
0
  6
CONTINUOUS
 10
4.341480
 20
1.022120
  0
VERTEX
  8
0
  6
CONTINUOUS
 10
4.168560
 20
1.010240
  0
VERTEX
  8
0
  6
CONTINUOUS
 10
4.088920
 20
0.993080
  0
VERTEX
  8
0
  6
CONTINUOUS
 10
4.016320
 20
0.966680
  0
VERTEX
  8
0
  6
CONTINUOUS
 10
3.952520
 20
0.928400
  0
VERTEX
  8
0
  6
CONTINUOUS
 10
3.899280
 20
0.876920
  0
VERTEX
  8
0
  6
CONTINUOUS
 10
3.858800
 20
0.810920
  0
VERTEX
  8
0
  6
CONTINUOUS
 10
3.832400
 20
0.728640
  0
VERTEX
  8
0
  6
CONTINUOUS
 10
3.491400
 20
0.728640
  0
VERTEX
  8
0
  6
CONTINUOUS
 10
3.490080
 20
0.726880
  0
VERTEX
  8
0
  6
CONTINUOUS
 10
3.154360
 20
4.834280
  0
VERTEX
  8
0
  6
CONTINUOUS
 10
3.490080
 20
8.938600
  0
VERTEX
  8
0
  6
CONTINUOUS
 10
3.492720
 20
8.942120
  0
SEQEND
  8
0
  0
TEXT
  8
0
 10
5.308600
 20
6.836720
 40
0.138116
  1
BA  53 
 41
1.000000
  7
SN0
 71
     0
 72
     5
 11
5.853488
 21
6.836720
  0
TEXT
  8
0
 10
3.861440
 20
1.141360
 40
0.138116
  1
BA  401 
 41
1.000000
  7
SN0
 71
     0
 72
     5
 11
4.498773
 21
1.141360
  0
TEXT
  8
0
 10
3.272720
 20
4.796000
 40
0.138116
  1
1006 Top Knife
 41
1.000000
  7
SN0
 71
     0
 72
     5
 11
4.399830
 21
4.796000
  0
TEXT
  8
0
 10
5.340720
 20
1.107920
 40
0.138116
  1
BA  1006 8-3/16"
 41
1.000000
  7
SN0
 71
     0
 72
     5
 11
6.601163
 21
1.107920
  0
TEXT
  8
0
 10
5.340720
 20
0.916520
 40
0.138116
  1
BA  401
 41
1.000000
  7
SN0
 71
     0
 72
     5
 11
5.931831
 21
0.916520
  0
TEXT
  8
0
 10
5.340720
 20
0.724680
 40
0.138116
  1
BA  53
 41
1.000000
  7
SN0
 71
     0
 72
     5
 11
5.839386
 21
0.724680
  0
ENDSEC
  0
EOF
