  0
SECTION
  2
HEADER
  9
$ACADVER
  1
AC1006
  9
$EXTMIN
 10
1.382480
 20
0.876480
  9
$EXTMAX
 10
7.689880
 20
8.377600
  9
$LTSCALE
 40
0.044000
  9
$PDMODE
 70
    35
  9
$PDSIZE
 40
0.035200
  0
ENDSEC
  0
SECTION
  2
TABLES
  0
TABLE
  2
LTYPE
 70
     9
  0
LTYPE
  2
CONTINUOUS
 70
    64
  3
Solid line
 72
    65
 73
     0
 40
0.000000
  0
LTYPE
  2
DASHED
 70
    64
  3
__ __ __ __ __ __ __ __ __ __ __ __ __ __ __
 72
    65
 73
     2
 40
0.000330
 49
0.000220
 49
-0.000110
  0
LTYPE
  2
HIDDEN
 70
    64
  3
 _ _ _ _ _ _ _ _ _ _ _ _ _ _ _ _ _ _ _ _ _ _
 72
    65
 73
     2
 40
0.000165
 49
0.000110
 49
-0.000055
  0
LTYPE
  2
CENTER
 70
    64
  3
____ _ ____ _ ____ _ ____ _ ____ _ ____ _ ____
 72
    65
 73
     4
 40
0.000880
 49
0.000550
 49
-0.000110
 49
0.000110
 49
-0.000110
  0
LTYPE
  2
PHANTOM
 70
    64
  3
_____ _ _ _____ _ _ _____ _ _ _____ _ _ ____
 72
    65
 73
     6
 40
0.001100
 49
0.000550
 49
-0.000110
 49
0.000110
 49
-0.000110
 49
0.000110
 49
-0.000110
  0
LTYPE
  2
DOT
 70
    64
  3
...............................................
 72
    65
 73
     2
 40
0.000110
 49
0.000000
 49
-0.000110
  0
LTYPE
  2
DASHDOT
 70
    64
  3
__ . __ . __ . __ . __ . __ . __ . __ . __ . __
 72
    65
 73
     4
 40
0.000440
 49
0.000220
 49
-0.000110
 49
0.000000
 49
-0.000110
  0
LTYPE
  2
BORDER
 70
    64
  3
__ __ . __ __ . __ __ . __ __ . __ __ . __ __
 72
    65
 73
     6
 40
0.000770
 49
0.000220
 49
-0.000110
 49
0.000220
 49
-0.000110
 49
0.000000
 49
-0.000110
  0
LTYPE
  2
DIVIDE
 70
    64
  3
__ . . __ . . __ . . __ . . __ . . __ . . __
 72
    65
 73
     6
 40
0.000550
 49
0.000220
 49
-0.000110
 49
0.000000
 49
-0.000110
 49
0.000000
 49
-0.000110
  0
LTYPE
  2
DOTDOT
 70
    64
  3
 . .  . .  . .  . .  . .  . . 
 72
    65
 73
     5
 40
0.000242
 49
-0.000110
 49
0.000000
 49
-0.000110
 49
0.000000
 49
-0.000110
  0
ENDTAB
  0
TABLE
  2
STYLE
 70
     2
  0
STYLE
 70
     0
  2
SN0
 40
0.000000
 41
0.000440
 50
0.000000
 71
     0
 42
0.000000
  3
ROMAND
  0
STYLE
 70
    68
  2
SV0
 40
0.000000
 41
0.000440
 50
0.000000
 71
     0
 42
0.000000
  3
ROMAND
  0
ENDTAB
  0
TABLE
  2
LAYER
 70
     3
  0
LAYER
  2
FOREGROUND
 70
    64
 62
     7
  6
CONTINUOUS
  0
LAYER
  2
BACKGROUND
 70
    65
 62
    -7
  6
CONTINUOUS
  0
LAYER
  2
0
 70
    64
 62
     7
  6
CONTINUOUS
  0
ENDTAB
  0
ENDSEC
  0
SECTION
  2
ENTITIES
  0
POLYLINE
  8
FOREGROUND
  6
CONTINUOUS
 66
     1
 40
0.000000
 41
0.000000
  0
VERTEX
  8
FOREGROUND
  6
CONTINUOUS
 10
0.000000
 20
9.254080
  0
VERTEX
  8
FOREGROUND
  6
CONTINUOUS
 10
8.499920
 20
9.254080
  0
VERTEX
  8
FOREGROUND
  6
CONTINUOUS
 10
8.499920
 20
-1.745920
  0
VERTEX
  8
FOREGROUND
  6
CONTINUOUS
 10
0.000000
 20
-1.745920
  0
VERTEX
  8
FOREGROUND
  6
CONTINUOUS
 10
0.000000
 20
9.254080
  0
SEQEND
  8
0
  0
POLYLINE
  8
FOREGROUND
  6
CONTINUOUS
 66
     1
 40
0.000000
 41
0.000000
  0
VERTEX
  8
FOREGROUND
  6
CONTINUOUS
 10
0.000000
 20
9.254080
  0
VERTEX
  8
FOREGROUND
  6
CONTINUOUS
 10
8.499920
 20
9.254080
  0
VERTEX
  8
FOREGROUND
  6
CONTINUOUS
 10
8.499920
 20
-1.745920
  0
VERTEX
  8
FOREGROUND
  6
CONTINUOUS
 10
0.000000
 20
-1.745920
  0
VERTEX
  8
FOREGROUND
  6
CONTINUOUS
 10
0.000000
 20
9.254080
  0
SEQEND
  8
0
  0
SOLID
  8
0
 62
    15
 10
4.162400
 20
2.996840
 11
4.798200
 21
2.647040
 12
4.044920
 22
2.711280
 13
4.680720
 23
2.361480
  0
POLYLINE
  8
0
  6
CONTINUOUS
 66
     1
 40
0.000000
 41
0.000000
  0
VERTEX
  8
0
  6
CONTINUOUS
 10
4.162400
 20
2.996840
  0
VERTEX
  8
0
  6
CONTINUOUS
 10
4.798200
 20
2.647040
  0
VERTEX
  8
0
  6
CONTINUOUS
 10
4.680720
 20
2.361480
  0
VERTEX
  8
0
  6
CONTINUOUS
 10
4.044920
 20
2.711280
  0
VERTEX
  8
0
  6
CONTINUOUS
 10
4.162400
 20
2.996840
  0
SEQEND
  8
0
  0
SOLID
  8
0
 62
    15
 10
5.529480
 20
5.246560
 11
6.165280
 21
4.896760
 12
5.279560
 22
5.180120
 13
5.915360
 23
4.830760
  0
POLYLINE
  8
0
  6
CONTINUOUS
 66
     1
 40
0.000000
 41
0.000000
  0
VERTEX
  8
0
  6
CONTINUOUS
 10
5.529480
 20
5.246560
  0
VERTEX
  8
0
  6
CONTINUOUS
 10
6.165280
 20
4.896760
  0
VERTEX
  8
0
  6
CONTINUOUS
 10
5.915360
 20
4.830760
  0
VERTEX
  8
0
  6
CONTINUOUS
 10
5.279560
 20
5.180120
  0
VERTEX
  8
0
  6
CONTINUOUS
 10
5.529480
 20
5.246560
  0
SEQEND
  8
0
  0
SOLID
  8
0
 62
    15
 10
5.279560
 20
5.180120
 11
5.915360
 21
4.830760
 12
5.059560
 22
5.068360
 13
5.695360
 23
4.718560
  0
POLYLINE
  8
0
  6
CONTINUOUS
 66
     1
 40
0.000000
 41
0.000000
  0
VERTEX
  8
0
  6
CONTINUOUS
 10
5.279560
 20
5.180120
  0
VERTEX
  8
0
  6
CONTINUOUS
 10
5.915360
 20
4.830760
  0
VERTEX
  8
0
  6
CONTINUOUS
 10
5.695360
 20
4.718560
  0
VERTEX
  8
0
  6
CONTINUOUS
 10
5.059560
 20
5.068360
  0
VERTEX
  8
0
  6
CONTINUOUS
 10
5.279560
 20
5.180120
  0
SEQEND
  8
0
  0
SOLID
  8
0
 62
    15
 10
5.059560
 20
5.068360
 11
5.695360
 21
4.718560
 12
4.869480
 22
4.913920
 13
5.505280
 23
4.564560
  0
POLYLINE
  8
0
  6
CONTINUOUS
 66
     1
 40
0.000000
 41
0.000000
  0
VERTEX
  8
0
  6
CONTINUOUS
 10
5.059560
 20
5.068360
  0
VERTEX
  8
0
  6
CONTINUOUS
 10
5.695360
 20
4.718560
  0
VERTEX
  8
0
  6
CONTINUOUS
 10
5.505280
 20
4.564560
  0
VERTEX
  8
0
  6
CONTINUOUS
 10
4.869480
 20
4.913920
  0
VERTEX
  8
0
  6
CONTINUOUS
 10
5.059560
 20
5.068360
  0
SEQEND
  8
0
  0
SOLID
  8
0
 62
    15
 10
4.869480
 20
4.913920
 11
5.505280
 21
4.564560
 12
4.707120
 22
4.720760
 13
5.342920
 23
4.371400
  0
POLYLINE
  8
0
  6
CONTINUOUS
 66
     1
 40
0.000000
 41
0.000000
  0
VERTEX
  8
0
  6
CONTINUOUS
 10
4.869480
 20
4.913920
  0
VERTEX
  8
0
  6
CONTINUOUS
 10
5.505280
 20
4.564560
  0
VERTEX
  8
0
  6
CONTINUOUS
 10
5.342920
 20
4.371400
  0
VERTEX
  8
0
  6
CONTINUOUS
 10
4.707120
 20
4.720760
  0
VERTEX
  8
0
  6
CONTINUOUS
 10
4.869480
 20
4.913920
  0
SEQEND
  8
0
  0
SOLID
  8
0
 62
    15
 10
4.707120
 20
4.720760
 11
5.342920
 21
4.371400
 12
4.571600
 22
4.491960
 13
5.207400
 23
4.142600
  0
POLYLINE
  8
0
  6
CONTINUOUS
 66
     1
 40
0.000000
 41
0.000000
  0
VERTEX
  8
0
  6
CONTINUOUS
 10
4.707120
 20
4.720760
  0
VERTEX
  8
0
  6
CONTINUOUS
 10
5.342920
 20
4.371400
  0
VERTEX
  8
0
  6
CONTINUOUS
 10
5.207400
 20
4.142600
  0
VERTEX
  8
0
  6
CONTINUOUS
 10
4.571600
 20
4.491960
  0
VERTEX
  8
0
  6
CONTINUOUS
 10
4.707120
 20
4.720760
  0
SEQEND
  8
0
  0
SOLID
  8
0
 62
    15
 10
4.571600
 20
4.491960
 11
5.207400
 21
4.142600
 12
4.462040
 22
4.231040
 13
5.097840
 23
3.881680
  0
POLYLINE
  8
0
  6
CONTINUOUS
 66
     1
 40
0.000000
 41
0.000000
  0
VERTEX
  8
0
  6
CONTINUOUS
 10
4.571600
 20
4.491960
  0
VERTEX
  8
0
  6
CONTINUOUS
 10
5.207400
 20
4.142600
  0
VERTEX
  8
0
  6
CONTINUOUS
 10
5.097840
 20
3.881680
  0
VERTEX
  8
0
  6
CONTINUOUS
 10
4.462040
 20
4.231040
  0
VERTEX
  8
0
  6
CONTINUOUS
 10
4.571600
 20
4.491960
  0
SEQEND
  8
0
  0
SOLID
  8
0
 62
    15
 10
4.462040
 20
4.231040
 11
5.097840
 21
3.881680
 12
4.376680
 22
3.941520
 13
5.012480
 23
3.592160
  0
POLYLINE
  8
0
  6
CONTINUOUS
 66
     1
 40
0.000000
 41
0.000000
  0
VERTEX
  8
0
  6
CONTINUOUS
 10
4.462040
 20
4.231040
  0
VERTEX
  8
0
  6
CONTINUOUS
 10
5.097840
 20
3.881680
  0
VERTEX
  8
0
  6
CONTINUOUS
 10
5.012480
 20
3.592160
  0
VERTEX
  8
0
  6
CONTINUOUS
 10
4.376680
 20
3.941520
  0
VERTEX
  8
0
  6
CONTINUOUS
 10
4.462040
 20
4.231040
  0
SEQEND
  8
0
  0
SOLID
  8
0
 62
    15
 10
4.376680
 20
3.941520
 11
5.012480
 21
3.592160
 12
4.314640
 22
3.626480
 13
4.950440
 23
3.276680
  0
POLYLINE
  8
0
  6
CONTINUOUS
 66
     1
 40
0.000000
 41
0.000000
  0
VERTEX
  8
0
  6
CONTINUOUS
 10
4.376680
 20
3.941520
  0
VERTEX
  8
0
  6
CONTINUOUS
 10
5.012480
 20
3.592160
  0
VERTEX
  8
0
  6
CONTINUOUS
 10
4.950440
 20
3.276680
  0
VERTEX
  8
0
  6
CONTINUOUS
 10
4.314640
 20
3.626480
  0
VERTEX
  8
0
  6
CONTINUOUS
 10
4.376680
 20
3.941520
  0
SEQEND
  8
0
  0
SOLID
  8
0
 62
    15
 10
4.314640
 20
3.626480
 11
4.950440
 21
3.276680
 12
4.251280
 22
3.304400
 13
4.887080
 23
2.954600
  0
POLYLINE
  8
0
  6
CONTINUOUS
 66
     1
 40
0.000000
 41
0.000000
  0
VERTEX
  8
0
  6
CONTINUOUS
 10
4.314640
 20
3.626480
  0
VERTEX
  8
0
  6
CONTINUOUS
 10
4.950440
 20
3.276680
  0
VERTEX
  8
0
  6
CONTINUOUS
 10
4.887080
 20
2.954600
  0
VERTEX
  8
0
  6
CONTINUOUS
 10
4.251280
 20
3.304400
  0
VERTEX
  8
0
  6
CONTINUOUS
 10
4.314640
 20
3.626480
  0
SEQEND
  8
0
  0
SOLID
  8
0
 62
    15
 10
4.251280
 20
3.304400
 11
4.887080
 21
2.954600
 12
4.162400
 22
2.996840
 13
4.798200
 23
2.647040
  0
POLYLINE
  8
0
  6
CONTINUOUS
 66
     1
 40
0.000000
 41
0.000000
  0
VERTEX
  8
0
  6
CONTINUOUS
 10
4.251280
 20
3.304400
  0
VERTEX
  8
0
  6
CONTINUOUS
 10
4.887080
 20
2.954600
  0
VERTEX
  8
0
  6
CONTINUOUS
 10
4.798200
 20
2.647040
  0
VERTEX
  8
0
  6
CONTINUOUS
 10
4.162400
 20
2.996840
  0
VERTEX
  8
0
  6
CONTINUOUS
 10
4.251280
 20
3.304400
  0
SEQEND
  8
0
  0
SOLID
  8
0
 62
    15
 10
5.530360
 20
6.686240
 11
6.166160
 21
6.336440
 12
5.529480
 22
5.246560
 13
6.165280
 23
4.896760
  0
POLYLINE
  8
0
  6
CONTINUOUS
 66
     1
 40
0.000000
 41
0.000000
  0
VERTEX
  8
0
  6
CONTINUOUS
 10
5.530360
 20
6.686240
  0
VERTEX
  8
0
  6
CONTINUOUS
 10
6.166160
 20
6.336440
  0
VERTEX
  8
0
  6
CONTINUOUS
 10
6.165280
 20
4.896760
  0
VERTEX
  8
0
  6
CONTINUOUS
 10
5.529480
 20
5.246560
  0
VERTEX
  8
0
  6
CONTINUOUS
 10
5.530360
 20
6.686240
  0
SEQEND
  8
0
  0
SOLID
  8
0
 62
    15
 10
4.044920
 20
2.711280
 11
4.680720
 21
2.361480
 12
3.896200
 22
2.455200
 13
4.532000
 23
2.105840
  0
POLYLINE
  8
0
  6
CONTINUOUS
 66
     1
 40
0.000000
 41
0.000000
  0
VERTEX
  8
0
  6
CONTINUOUS
 10
4.044920
 20
2.711280
  0
VERTEX
  8
0
  6
CONTINUOUS
 10
4.680720
 20
2.361480
  0
VERTEX
  8
0
  6
CONTINUOUS
 10
4.532000
 20
2.105840
  0
VERTEX
  8
0
  6
CONTINUOUS
 10
3.896200
 20
2.455200
  0
VERTEX
  8
0
  6
CONTINUOUS
 10
4.044920
 20
2.711280
  0
SEQEND
  8
0
  0
SOLID
  8
0
 62
    15
 10
3.896200
 20
2.455200
 11
4.532000
 21
2.105840
 12
3.713160
 22
2.236960
 13
4.348960
 23
1.887600
  0
POLYLINE
  8
0
  6
CONTINUOUS
 66
     1
 40
0.000000
 41
0.000000
  0
VERTEX
  8
0
  6
CONTINUOUS
 10
3.896200
 20
2.455200
  0
VERTEX
  8
0
  6
CONTINUOUS
 10
4.532000
 20
2.105840
  0
VERTEX
  8
0
  6
CONTINUOUS
 10
4.348960
 20
1.887600
  0
VERTEX
  8
0
  6
CONTINUOUS
 10
3.713160
 20
2.236960
  0
VERTEX
  8
0
  6
CONTINUOUS
 10
3.896200
 20
2.455200
  0
SEQEND
  8
0
  0
SOLID
  8
0
 62
    15
 10
3.713160
 20
2.236960
 11
4.348960
 21
1.887600
 12
3.608000
 22
2.144560
 13
4.243800
 23
1.794760
  0
POLYLINE
  8
0
  6
CONTINUOUS
 66
     1
 40
0.000000
 41
0.000000
  0
VERTEX
  8
0
  6
CONTINUOUS
 10
3.713160
 20
2.236960
  0
VERTEX
  8
0
  6
CONTINUOUS
 10
4.348960
 20
1.887600
  0
VERTEX
  8
0
  6
CONTINUOUS
 10
4.243800
 20
1.794760
  0
VERTEX
  8
0
  6
CONTINUOUS
 10
3.608000
 20
2.144560
  0
VERTEX
  8
0
  6
CONTINUOUS
 10
3.713160
 20
2.236960
  0
SEQEND
  8
0
  0
SOLID
  8
0
 62
    15
 10
3.608000
 20
2.144560
 11
4.243800
 21
1.794760
 12
3.493600
 22
2.064040
 13
4.129400
 23
1.714240
  0
POLYLINE
  8
0
  6
CONTINUOUS
 66
     1
 40
0.000000
 41
0.000000
  0
VERTEX
  8
0
  6
CONTINUOUS
 10
3.608000
 20
2.144560
  0
VERTEX
  8
0
  6
CONTINUOUS
 10
4.243800
 20
1.794760
  0
VERTEX
  8
0
  6
CONTINUOUS
 10
4.129400
 20
1.714240
  0
VERTEX
  8
0
  6
CONTINUOUS
 10
3.493600
 20
2.064040
  0
VERTEX
  8
0
  6
CONTINUOUS
 10
3.608000
 20
2.144560
  0
SEQEND
  8
0
  0
SOLID
  8
0
 62
    15
 10
3.493600
 20
2.064040
 11
4.129400
 21
1.714240
 12
3.369080
 22
1.996720
 13
4.004880
 23
1.646920
  0
POLYLINE
  8
0
  6
CONTINUOUS
 66
     1
 40
0.000000
 41
0.000000
  0
VERTEX
  8
0
  6
CONTINUOUS
 10
3.493600
 20
2.064040
  0
VERTEX
  8
0
  6
CONTINUOUS
 10
4.129400
 20
1.714240
  0
VERTEX
  8
0
  6
CONTINUOUS
 10
4.004880
 20
1.646920
  0
VERTEX
  8
0
  6
CONTINUOUS
 10
3.369080
 20
1.996720
  0
VERTEX
  8
0
  6
CONTINUOUS
 10
3.493600
 20
2.064040
  0
SEQEND
  8
0
  0
SOLID
  8
0
 62
    15
 10
3.369080
 20
1.996720
 11
4.004880
 21
1.646920
 12
3.234000
 22
1.943480
 13
3.869800
 23
1.594120
  0
POLYLINE
  8
0
  6
CONTINUOUS
 66
     1
 40
0.000000
 41
0.000000
  0
VERTEX
  8
0
  6
CONTINUOUS
 10
3.369080
 20
1.996720
  0
VERTEX
  8
0
  6
CONTINUOUS
 10
4.004880
 20
1.646920
  0
VERTEX
  8
0
  6
CONTINUOUS
 10
3.869800
 20
1.594120
  0
VERTEX
  8
0
  6
CONTINUOUS
 10
3.234000
 20
1.943480
  0
VERTEX
  8
0
  6
CONTINUOUS
 10
3.369080
 20
1.996720
  0
SEQEND
  8
0
  0
SOLID
  8
0
 62
    15
 10
3.234000
 20
1.943480
 11
3.869800
 21
1.594120
 12
3.088800
 22
1.905200
 13
3.724600
 23
1.555840
  0
POLYLINE
  8
0
  6
CONTINUOUS
 66
     1
 40
0.000000
 41
0.000000
  0
VERTEX
  8
0
  6
CONTINUOUS
 10
3.234000
 20
1.943480
  0
VERTEX
  8
0
  6
CONTINUOUS
 10
3.869800
 20
1.594120
  0
VERTEX
  8
0
  6
CONTINUOUS
 10
3.724600
 20
1.555840
  0
VERTEX
  8
0
  6
CONTINUOUS
 10
3.088800
 20
1.905200
  0
VERTEX
  8
0
  6
CONTINUOUS
 10
3.234000
 20
1.943480
  0
SEQEND
  8
0
  0
SOLID
  8
0
 62
    15
 10
3.088800
 20
1.905200
 11
3.724600
 21
1.555840
 12
2.933040
 22
1.883200
 13
3.568400
 23
1.533840
  0
POLYLINE
  8
0
  6
CONTINUOUS
 66
     1
 40
0.000000
 41
0.000000
  0
VERTEX
  8
0
  6
CONTINUOUS
 10
3.088800
 20
1.905200
  0
VERTEX
  8
0
  6
CONTINUOUS
 10
3.724600
 20
1.555840
  0
VERTEX
  8
0
  6
CONTINUOUS
 10
3.568400
 20
1.533840
  0
VERTEX
  8
0
  6
CONTINUOUS
 10
2.933040
 20
1.883200
  0
VERTEX
  8
0
  6
CONTINUOUS
 10
3.088800
 20
1.905200
  0
SEQEND
  8
0
  0
SOLID
  8
0
 62
    15
 10
2.925120
 20
1.279080
 11
3.560920
 21
0.929720
 12
2.363680
 22
1.272040
 13
2.999480
 23
0.922680
  0
POLYLINE
  8
0
  6
CONTINUOUS
 66
     1
 40
0.000000
 41
0.000000
  0
VERTEX
  8
0
  6
CONTINUOUS
 10
2.925120
 20
1.279080
  0
VERTEX
  8
0
  6
CONTINUOUS
 10
3.560920
 20
0.929720
  0
VERTEX
  8
0
  6
CONTINUOUS
 10
2.999480
 20
0.922680
  0
VERTEX
  8
0
  6
CONTINUOUS
 10
2.363680
 20
1.272040
  0
VERTEX
  8
0
  6
CONTINUOUS
 10
2.925120
 20
1.279080
  0
SEQEND
  8
0
  0
SOLID
  8
0
 62
    15
 10
2.933040
 20
1.883200
 11
3.568400
 21
1.533840
 12
2.925120
 22
1.279080
 13
3.560920
 23
0.929720
  0
POLYLINE
  8
0
  6
CONTINUOUS
 66
     1
 40
0.000000
 41
0.000000
  0
VERTEX
  8
0
  6
CONTINUOUS
 10
2.933040
 20
1.883200
  0
VERTEX
  8
0
  6
CONTINUOUS
 10
3.568400
 20
1.533840
  0
VERTEX
  8
0
  6
CONTINUOUS
 10
3.560920
 20
0.929720
  0
VERTEX
  8
0
  6
CONTINUOUS
 10
2.925120
 20
1.279080
  0
VERTEX
  8
0
  6
CONTINUOUS
 10
2.933040
 20
1.883200
  0
SEQEND
  8
0
  0
SOLID
  8
0
 62
    15
 10
3.248520
 20
3.783560
 11
3.883880
 21
3.434200
 12
3.245880
 22
3.779160
 13
3.881680
 23
3.429800
  0
POLYLINE
  8
0
  6
CONTINUOUS
 66
     1
 40
0.000000
 41
0.000000
  0
VERTEX
  8
0
  6
CONTINUOUS
 10
3.248520
 20
3.783560
  0
VERTEX
  8
0
  6
CONTINUOUS
 10
3.883880
 20
3.434200
  0
VERTEX
  8
0
  6
CONTINUOUS
 10
3.881680
 20
3.429800
  0
VERTEX
  8
0
  6
CONTINUOUS
 10
3.245880
 20
3.779160
  0
VERTEX
  8
0
  6
CONTINUOUS
 10
3.248520
 20
3.783560
  0
SEQEND
  8
0
  0
POLYLINE
  8
0
  6
CONTINUOUS
 66
     1
 40
0.000000
 41
0.000000
  0
VERTEX
  8
0
  6
CONTINUOUS
 10
3.245880
 20
3.779160
  0
VERTEX
  8
0
  6
CONTINUOUS
 10
5.022160
 20
6.843320
  0
VERTEX
  8
0
  6
CONTINUOUS
 10
5.023480
 20
6.845960
  0
VERTEX
  8
0
  6
CONTINUOUS
 10
5.530360
 20
6.686240
  0
VERTEX
  8
0
  6
CONTINUOUS
 10
5.529480
 20
5.246560
  0
VERTEX
  8
0
  6
CONTINUOUS
 10
5.279560
 20
5.180120
  0
VERTEX
  8
0
  6
CONTINUOUS
 10
5.059560
 20
5.068360
  0
VERTEX
  8
0
  6
CONTINUOUS
 10
4.869480
 20
4.913920
  0
VERTEX
  8
0
  6
CONTINUOUS
 10
4.707120
 20
4.720760
  0
VERTEX
  8
0
  6
CONTINUOUS
 10
4.571600
 20
4.491960
  0
VERTEX
  8
0
  6
CONTINUOUS
 10
4.462040
 20
4.231040
  0
VERTEX
  8
0
  6
CONTINUOUS
 10
4.376680
 20
3.941520
  0
VERTEX
  8
0
  6
CONTINUOUS
 10
4.314640
 20
3.626480
  0
VERTEX
  8
0
  6
CONTINUOUS
 10
4.251280
 20
3.304400
  0
VERTEX
  8
0
  6
CONTINUOUS
 10
4.162400
 20
2.996840
  0
VERTEX
  8
0
  6
CONTINUOUS
 10
4.044920
 20
2.711280
  0
VERTEX
  8
0
  6
CONTINUOUS
 10
3.896200
 20
2.455200
  0
VERTEX
  8
0
  6
CONTINUOUS
 10
3.713160
 20
2.236960
  0
VERTEX
  8
0
  6
CONTINUOUS
 10
3.608000
 20
2.144560
  0
VERTEX
  8
0
  6
CONTINUOUS
 10
3.493600
 20
2.064040
  0
VERTEX
  8
0
  6
CONTINUOUS
 10
3.369080
 20
1.996720
  0
VERTEX
  8
0
  6
CONTINUOUS
 10
3.234000
 20
1.943480
  0
VERTEX
  8
0
  6
CONTINUOUS
 10
3.088800
 20
1.905200
  0
VERTEX
  8
0
  6
CONTINUOUS
 10
2.933040
 20
1.883200
  0
VERTEX
  8
0
  6
CONTINUOUS
 10
2.925120
 20
1.279080
  0
VERTEX
  8
0
  6
CONTINUOUS
 10
2.363680
 20
1.272040
  0
VERTEX
  8
0
  6
CONTINUOUS
 10
2.380400
 20
2.286240
  0
VERTEX
  8
0
  6
CONTINUOUS
 10
2.382160
 20
2.289320
  0
VERTEX
  8
0
  6
CONTINUOUS
 10
3.248520
 20
3.783560
  0
VERTEX
  8
0
  6
CONTINUOUS
 10
3.245880
 20
3.779160
  0
SEQEND
  8
0
  0
TEXT
  8
0
 10
4.373600
 20
1.112760
 40
0.138213
  1
BA  976
 41
1.000000
  7
SN0
 71
     0
 72
     5
 11
4.963563
 21
1.112760
  0
TEXT
  8
0
 10
4.143920
 20
0.920920
 40
0.138213
  1
1-1/4" x 6-1/4"
 41
1.000000
  7
SN0
 71
     0
 72
     5
 11
5.191826
 21
0.920920
  0
POLYLINE
  8
0
  6
CONTINUOUS
 66
     1
 40
0.014080
 41
0.014080
  0
VERTEX
  8
0
  6
CONTINUOUS
 10
5.051640
 20
7.130200
  0
VERTEX
  8
0
  6
CONTINUOUS
 10
1.507000
 20
7.130200
  0
VERTEX
  8
0
  6
CONTINUOUS
 10
1.390840
 20
7.648960
  0
VERTEX
  8
0
  6
CONTINUOUS
 10
2.636920
 20
8.370120
  0
VERTEX
  8
0
  6
CONTINUOUS
 10
2.702480
 20
8.295320
  0
VERTEX
  8
0
  6
CONTINUOUS
 10
2.771560
 20
8.228000
  0
VERTEX
  8
0
  6
CONTINUOUS
 10
2.819960
 20
8.187080
  0
VERTEX
  8
0
  6
CONTINUOUS
 10
2.869240
 20
8.148800
  0
VERTEX
  8
0
  6
CONTINUOUS
 10
2.946240
 20
8.097760
  0
VERTEX
  8
0
  6
CONTINUOUS
 10
3.026760
 20
8.052880
  0
VERTEX
  8
0
  6
CONTINUOUS
 10
3.110360
 20
8.015040
  0
VERTEX
  8
0
  6
CONTINUOUS
 10
3.167560
 20
7.993040
  0
VERTEX
  8
0
  6
CONTINUOUS
 10
3.255560
 20
7.965760
  0
VERTEX
  8
0
  6
CONTINUOUS
 10
3.346640
 20
7.944200
  0
VERTEX
  8
0
  6
CONTINUOUS
 10
3.440360
 20
7.929240
  0
VERTEX
  8
0
  6
CONTINUOUS
 10
3.504160
 20
7.922200
  0
VERTEX
  8
0
  6
CONTINUOUS
 10
3.569280
 20
7.917800
  0
VERTEX
  8
0
  6
CONTINUOUS
 10
3.635280
 20
7.916040
  0
VERTEX
  8
0
  6
CONTINUOUS
 10
3.702160
 20
7.916480
  0
VERTEX
  8
0
  6
CONTINUOUS
 10
3.769920
 20
7.919560
  0
VERTEX
  8
0
  6
CONTINUOUS
 10
3.873760
 20
7.928800
  0
VERTEX
  8
0
  6
CONTINUOUS
 10
3.979360
 20
7.943320
  0
VERTEX
  8
0
  6
CONTINUOUS
 10
4.051080
 20
7.955640
  0
VERTEX
  8
0
  6
CONTINUOUS
 10
4.123240
 20
7.970160
  0
VERTEX
  8
0
  6
CONTINUOUS
 10
4.196280
 20
7.987320
  0
VERTEX
  8
0
  6
CONTINUOUS
 10
4.269760
 20
8.006240
  0
VERTEX
  8
0
  6
CONTINUOUS
 10
4.344560
 20
8.027360
  0
VERTEX
  8
0
  6
CONTINUOUS
 10
4.419360
 20
8.050240
  0
VERTEX
  8
0
  6
CONTINUOUS
 10
4.495040
 20
8.075320
  0
VERTEX
  8
0
  6
CONTINUOUS
 10
4.803040
 20
8.188400
  0
VERTEX
  8
0
  6
CONTINUOUS
 10
4.880480
 20
8.214360
  0
VERTEX
  8
0
  6
CONTINUOUS
 10
4.958360
 20
8.238560
  0
VERTEX
  8
0
  6
CONTINUOUS
 10
5.036240
 20
8.261000
  0
VERTEX
  8
0
  6
CONTINUOUS
 10
5.114120
 20
8.281240
  0
VERTEX
  8
0
  6
CONTINUOUS
 10
5.191560
 20
8.299720
  0
VERTEX
  8
0
  6
CONTINUOUS
 10
5.269000
 20
8.316000
  0
VERTEX
  8
0
  6
CONTINUOUS
 10
5.346440
 20
8.330080
  0
VERTEX
  8
0
  6
CONTINUOUS
 10
5.461280
 20
8.346360
  0
VERTEX
  8
0
  6
CONTINUOUS
 10
5.537400
 20
8.354280
  0
VERTEX
  8
0
  6
CONTINUOUS
 10
5.612640
 20
8.359560
  0
VERTEX
  8
0
  6
CONTINUOUS
 10
5.687440
 20
8.362640
  0
VERTEX
  8
0
  6
CONTINUOUS
 10
5.798320
 20
8.361320
  0
VERTEX
  8
0
  6
CONTINUOUS
 10
5.870920
 20
8.356920
  0
VERTEX
  8
0
  6
CONTINUOUS
 10
5.942640
 20
8.349440
  0
VERTEX
  8
0
  6
CONTINUOUS
 10
6.013480
 20
8.338880
  0
VERTEX
  8
0
  6
CONTINUOUS
 10
6.083440
 20
8.325240
  0
VERTEX
  8
0
  6
CONTINUOUS
 10
6.185520
 20
8.298400
  0
VERTEX
  8
0
  6
CONTINUOUS
 10
6.284520
 20
8.263640
  0
VERTEX
  8
0
  6
CONTINUOUS
 10
6.348760
 20
8.235920
  0
VERTEX
  8
0
  6
CONTINUOUS
 10
6.411680
 20
8.204680
  0
VERTEX
  8
0
  6
CONTINUOUS
 10
6.472840
 20
8.169920
  0
VERTEX
  8
0
  6
CONTINUOUS
 10
6.532240
 20
8.130760
  0
VERTEX
  8
0
  6
CONTINUOUS
 10
6.589880
 20
8.088080
  0
VERTEX
  8
0
  6
CONTINUOUS
 10
6.645760
 20
8.041000
  0
VERTEX
  8
0
  6
CONTINUOUS
 10
6.699880
 20
7.989960
  0
VERTEX
  8
0
  6
CONTINUOUS
 10
6.751800
 20
7.934520
  0
VERTEX
  8
0
  6
CONTINUOUS
 10
6.801520
 20
7.874680
  0
VERTEX
  8
0
  6
CONTINUOUS
 10
6.849040
 20
7.810440
  0
VERTEX
  8
0
  6
CONTINUOUS
 10
7.375280
 20
8.106560
  0
VERTEX
  8
0
  6
CONTINUOUS
 10
7.663040
 20
7.624320
  0
VERTEX
  8
0
  6
CONTINUOUS
 10
6.777320
 20
7.130200
  0
VERTEX
  8
0
  6
CONTINUOUS
 10
5.046800
 20
7.130200
  0
VERTEX
  8
0
  6
CONTINUOUS
 10
5.051640
 20
7.130200
  0
SEQEND
  8
0
  0
TEXT
  8
0
 10
4.040080
 20
7.453600
 40
0.138213
  1
BA  976
 41
1.000000
  7
SN0
 71
     0
 72
     5
 11
4.630043
 21
7.453600
  0
TEXT
  8
0
 10
3.810400
 20
7.262200
 40
0.138213
  1
1-1/4" x 6-1/4"
 41
1.000000
  7
SN0
 71
     0
 72
     5
 11
4.858306
 21
7.262200
  0
ENDSEC
  0
EOF
