  0
SECTION
  2
HEADER
  9
$ACADVER
  1
AC1006
  9
$EXTMIN
 10
2.913680
 20
4.788080
  9
$EXTMAX
 10
5.585800
 20
6.211480
  9
$LTSCALE
 40
0.044000
  9
$PDMODE
 70
    35
  9
$PDSIZE
 40
0.035200
  0
ENDSEC
  0
SECTION
  2
TABLES
  0
TABLE
  2
LTYPE
 70
     9
  0
LTYPE
  2
CONTINUOUS
 70
    64
  3
Solid line
 72
    65
 73
     0
 40
0.000000
  0
LTYPE
  2
DASHED
 70
    64
  3
__ __ __ __ __ __ __ __ __ __ __ __ __ __ __
 72
    65
 73
     2
 40
0.000330
 49
0.000220
 49
-0.000110
  0
LTYPE
  2
HIDDEN
 70
    64
  3
 _ _ _ _ _ _ _ _ _ _ _ _ _ _ _ _ _ _ _ _ _ _
 72
    65
 73
     2
 40
0.000165
 49
0.000110
 49
-0.000055
  0
LTYPE
  2
CENTER
 70
    64
  3
____ _ ____ _ ____ _ ____ _ ____ _ ____ _ ____
 72
    65
 73
     4
 40
0.000880
 49
0.000550
 49
-0.000110
 49
0.000110
 49
-0.000110
  0
LTYPE
  2
PHANTOM
 70
    64
  3
_____ _ _ _____ _ _ _____ _ _ _____ _ _ ____
 72
    65
 73
     6
 40
0.001100
 49
0.000550
 49
-0.000110
 49
0.000110
 49
-0.000110
 49
0.000110
 49
-0.000110
  0
LTYPE
  2
DOT
 70
    64
  3
...............................................
 72
    65
 73
     2
 40
0.000110
 49
0.000000
 49
-0.000110
  0
LTYPE
  2
DASHDOT
 70
    64
  3
__ . __ . __ . __ . __ . __ . __ . __ . __ . __
 72
    65
 73
     4
 40
0.000440
 49
0.000220
 49
-0.000110
 49
0.000000
 49
-0.000110
  0
LTYPE
  2
BORDER
 70
    64
  3
__ __ . __ __ . __ __ . __ __ . __ __ . __ __
 72
    65
 73
     6
 40
0.000770
 49
0.000220
 49
-0.000110
 49
0.000220
 49
-0.000110
 49
0.000000
 49
-0.000110
  0
LTYPE
  2
DIVIDE
 70
    64
  3
__ . . __ . . __ . . __ . . __ . . __ . . __
 72
    65
 73
     6
 40
0.000550
 49
0.000220
 49
-0.000110
 49
0.000000
 49
-0.000110
 49
0.000000
 49
-0.000110
  0
LTYPE
  2
DOTDOT
 70
    64
  3
 . .  . .  . .  . .  . .  . . 
 72
    65
 73
     5
 40
0.000242
 49
-0.000110
 49
0.000000
 49
-0.000110
 49
0.000000
 49
-0.000110
  0
ENDTAB
  0
TABLE
  2
STYLE
 70
     2
  0
STYLE
 70
     0
  2
SN0
 40
0.000000
 41
0.000440
 50
0.000000
 71
     0
 42
0.000000
  3
ROMAND
  0
STYLE
 70
    68
  2
SV0
 40
0.000000
 41
0.000440
 50
0.000000
 71
     0
 42
0.000000
  3
ROMAND
  0
ENDTAB
  0
TABLE
  2
LAYER
 70
     3
  0
LAYER
  2
FOREGROUND
 70
    64
 62
     7
  6
CONTINUOUS
  0
LAYER
  2
BACKGROUND
 70
    65
 62
    -7
  6
CONTINUOUS
  0
LAYER
  2
0
 70
    64
 62
     7
  6
CONTINUOUS
  0
ENDTAB
  0
ENDSEC
  0
SECTION
  2
ENTITIES
  0
POLYLINE
  8
FOREGROUND
  6
CONTINUOUS
 66
     1
 40
0.000000
 41
0.000000
  0
VERTEX
  8
FOREGROUND
  6
CONTINUOUS
 10
0.000000
 20
10.999560
  0
VERTEX
  8
FOREGROUND
  6
CONTINUOUS
 10
8.499920
 20
10.999560
  0
VERTEX
  8
FOREGROUND
  6
CONTINUOUS
 10
8.499920
 20
-0.000440
  0
VERTEX
  8
FOREGROUND
  6
CONTINUOUS
 10
0.000000
 20
-0.000440
  0
VERTEX
  8
FOREGROUND
  6
CONTINUOUS
 10
0.000000
 20
10.999560
  0
SEQEND
  8
0
  0
POLYLINE
  8
FOREGROUND
  6
CONTINUOUS
 66
     1
 40
0.000000
 41
0.000000
  0
VERTEX
  8
FOREGROUND
  6
CONTINUOUS
 10
0.000000
 20
10.999560
  0
VERTEX
  8
FOREGROUND
  6
CONTINUOUS
 10
8.499920
 20
10.999560
  0
VERTEX
  8
FOREGROUND
  6
CONTINUOUS
 10
8.499920
 20
-0.000440
  0
VERTEX
  8
FOREGROUND
  6
CONTINUOUS
 10
0.000000
 20
-0.000440
  0
VERTEX
  8
FOREGROUND
  6
CONTINUOUS
 10
0.000000
 20
10.999560
  0
SEQEND
  8
0
  0
SOLID
  8
0
 62
    15
 10
3.520880
 20
5.405400
 11
3.519560
 21
6.161320
 12
3.540240
 22
5.390000
 13
3.538920
 23
6.145920
  0
POLYLINE
  8
0
  6
CONTINUOUS
 66
     1
 40
0.000000
 41
0.000000
  0
VERTEX
  8
0
  6
CONTINUOUS
 10
3.520880
 20
5.405400
  0
VERTEX
  8
0
  6
CONTINUOUS
 10
3.519560
 20
6.161320
  0
VERTEX
  8
0
  6
CONTINUOUS
 10
3.538920
 20
6.145920
  0
VERTEX
  8
0
  6
CONTINUOUS
 10
3.540240
 20
5.390000
  0
VERTEX
  8
0
  6
CONTINUOUS
 10
3.520880
 20
5.405400
  0
SEQEND
  8
0
  0
SOLID
  8
0
 62
    15
 10
3.281080
 20
5.249640
 11
3.279760
 21
6.005560
 12
3.281080
 22
5.375480
 13
3.279760
 23
6.131400
  0
POLYLINE
  8
0
  6
CONTINUOUS
 66
     1
 40
0.000000
 41
0.000000
  0
VERTEX
  8
0
  6
CONTINUOUS
 10
3.281080
 20
5.249640
  0
VERTEX
  8
0
  6
CONTINUOUS
 10
3.279760
 20
6.005560
  0
VERTEX
  8
0
  6
CONTINUOUS
 10
3.279760
 20
6.131400
  0
VERTEX
  8
0
  6
CONTINUOUS
 10
3.281080
 20
5.375480
  0
VERTEX
  8
0
  6
CONTINUOUS
 10
3.281080
 20
5.249640
  0
SEQEND
  8
0
  0
SOLID
  8
0
 62
    15
 10
3.318040
 20
5.375480
 11
3.316720
 21
6.131400
 12
3.318920
 22
5.382520
 13
3.317600
 23
6.138440
  0
POLYLINE
  8
0
  6
CONTINUOUS
 66
     1
 40
0.000000
 41
0.000000
  0
VERTEX
  8
0
  6
CONTINUOUS
 10
3.318040
 20
5.375480
  0
VERTEX
  8
0
  6
CONTINUOUS
 10
3.316720
 20
6.131400
  0
VERTEX
  8
0
  6
CONTINUOUS
 10
3.317600
 20
6.138440
  0
VERTEX
  8
0
  6
CONTINUOUS
 10
3.318920
 20
5.382520
  0
VERTEX
  8
0
  6
CONTINUOUS
 10
3.318040
 20
5.375480
  0
SEQEND
  8
0
  0
SOLID
  8
0
 62
    15
 10
3.318920
 20
5.382520
 11
3.317600
 21
6.138440
 12
3.320240
 22
5.389560
 13
3.318920
 23
6.145480
  0
POLYLINE
  8
0
  6
CONTINUOUS
 66
     1
 40
0.000000
 41
0.000000
  0
VERTEX
  8
0
  6
CONTINUOUS
 10
3.318920
 20
5.382520
  0
VERTEX
  8
0
  6
CONTINUOUS
 10
3.317600
 20
6.138440
  0
VERTEX
  8
0
  6
CONTINUOUS
 10
3.318920
 20
6.145480
  0
VERTEX
  8
0
  6
CONTINUOUS
 10
3.320240
 20
5.389560
  0
VERTEX
  8
0
  6
CONTINUOUS
 10
3.318920
 20
5.382520
  0
SEQEND
  8
0
  0
SOLID
  8
0
 62
    15
 10
3.320240
 20
5.389560
 11
3.318920
 21
6.145480
 12
3.326400
 22
5.403200
 13
3.325080
 23
6.159120
  0
POLYLINE
  8
0
  6
CONTINUOUS
 66
     1
 40
0.000000
 41
0.000000
  0
VERTEX
  8
0
  6
CONTINUOUS
 10
3.320240
 20
5.389560
  0
VERTEX
  8
0
  6
CONTINUOUS
 10
3.318920
 20
6.145480
  0
VERTEX
  8
0
  6
CONTINUOUS
 10
3.325080
 20
6.159120
  0
VERTEX
  8
0
  6
CONTINUOUS
 10
3.326400
 20
5.403200
  0
VERTEX
  8
0
  6
CONTINUOUS
 10
3.320240
 20
5.389560
  0
SEQEND
  8
0
  0
SOLID
  8
0
 62
    15
 10
3.326400
 20
5.403200
 11
3.325080
 21
6.159120
 12
3.336080
 22
5.415960
 13
3.334760
 23
6.171880
  0
POLYLINE
  8
0
  6
CONTINUOUS
 66
     1
 40
0.000000
 41
0.000000
  0
VERTEX
  8
0
  6
CONTINUOUS
 10
3.326400
 20
5.403200
  0
VERTEX
  8
0
  6
CONTINUOUS
 10
3.325080
 20
6.159120
  0
VERTEX
  8
0
  6
CONTINUOUS
 10
3.334760
 20
6.171880
  0
VERTEX
  8
0
  6
CONTINUOUS
 10
3.336080
 20
5.415960
  0
VERTEX
  8
0
  6
CONTINUOUS
 10
3.326400
 20
5.403200
  0
SEQEND
  8
0
  0
SOLID
  8
0
 62
    15
 10
3.336080
 20
5.415960
 11
3.334760
 21
6.171880
 12
3.348840
 22
5.427840
 13
3.347520
 23
6.183760
  0
POLYLINE
  8
0
  6
CONTINUOUS
 66
     1
 40
0.000000
 41
0.000000
  0
VERTEX
  8
0
  6
CONTINUOUS
 10
3.336080
 20
5.415960
  0
VERTEX
  8
0
  6
CONTINUOUS
 10
3.334760
 20
6.171880
  0
VERTEX
  8
0
  6
CONTINUOUS
 10
3.347520
 20
6.183760
  0
VERTEX
  8
0
  6
CONTINUOUS
 10
3.348840
 20
5.427840
  0
VERTEX
  8
0
  6
CONTINUOUS
 10
3.336080
 20
5.415960
  0
SEQEND
  8
0
  0
SOLID
  8
0
 62
    15
 10
3.348840
 20
5.427840
 11
3.347520
 21
6.183760
 12
3.364240
 22
5.437960
 13
3.362920
 23
6.193880
  0
POLYLINE
  8
0
  6
CONTINUOUS
 66
     1
 40
0.000000
 41
0.000000
  0
VERTEX
  8
0
  6
CONTINUOUS
 10
3.348840
 20
5.427840
  0
VERTEX
  8
0
  6
CONTINUOUS
 10
3.347520
 20
6.183760
  0
VERTEX
  8
0
  6
CONTINUOUS
 10
3.362920
 20
6.193880
  0
VERTEX
  8
0
  6
CONTINUOUS
 10
3.364240
 20
5.437960
  0
VERTEX
  8
0
  6
CONTINUOUS
 10
3.348840
 20
5.427840
  0
SEQEND
  8
0
  0
SOLID
  8
0
 62
    15
 10
3.364240
 20
5.437960
 11
3.362920
 21
6.193880
 12
3.381840
 22
5.445880
 13
3.380520
 23
6.201800
  0
POLYLINE
  8
0
  6
CONTINUOUS
 66
     1
 40
0.000000
 41
0.000000
  0
VERTEX
  8
0
  6
CONTINUOUS
 10
3.364240
 20
5.437960
  0
VERTEX
  8
0
  6
CONTINUOUS
 10
3.362920
 20
6.193880
  0
VERTEX
  8
0
  6
CONTINUOUS
 10
3.380520
 20
6.201800
  0
VERTEX
  8
0
  6
CONTINUOUS
 10
3.381840
 20
5.445880
  0
VERTEX
  8
0
  6
CONTINUOUS
 10
3.364240
 20
5.437960
  0
SEQEND
  8
0
  0
SOLID
  8
0
 62
    15
 10
3.381840
 20
5.445880
 11
3.380520
 21
6.201800
 12
3.401200
 22
5.451600
 13
3.400320
 23
6.207520
  0
POLYLINE
  8
0
  6
CONTINUOUS
 66
     1
 40
0.000000
 41
0.000000
  0
VERTEX
  8
0
  6
CONTINUOUS
 10
3.381840
 20
5.445880
  0
VERTEX
  8
0
  6
CONTINUOUS
 10
3.380520
 20
6.201800
  0
VERTEX
  8
0
  6
CONTINUOUS
 10
3.400320
 20
6.207520
  0
VERTEX
  8
0
  6
CONTINUOUS
 10
3.401200
 20
5.451600
  0
VERTEX
  8
0
  6
CONTINUOUS
 10
3.381840
 20
5.445880
  0
SEQEND
  8
0
  0
SOLID
  8
0
 62
    15
 10
3.401200
 20
5.451600
 11
3.400320
 21
6.207520
 12
3.422320
 22
5.454680
 13
3.421000
 23
6.210600
  0
POLYLINE
  8
0
  6
CONTINUOUS
 66
     1
 40
0.000000
 41
0.000000
  0
VERTEX
  8
0
  6
CONTINUOUS
 10
3.401200
 20
5.451600
  0
VERTEX
  8
0
  6
CONTINUOUS
 10
3.400320
 20
6.207520
  0
VERTEX
  8
0
  6
CONTINUOUS
 10
3.421000
 20
6.210600
  0
VERTEX
  8
0
  6
CONTINUOUS
 10
3.422320
 20
5.454680
  0
VERTEX
  8
0
  6
CONTINUOUS
 10
3.401200
 20
5.451600
  0
SEQEND
  8
0
  0
SOLID
  8
0
 62
    15
 10
3.422320
 20
5.454680
 11
3.421000
 21
6.210600
 12
3.433320
 22
5.454240
 13
3.432440
 23
6.210160
  0
POLYLINE
  8
0
  6
CONTINUOUS
 66
     1
 40
0.000000
 41
0.000000
  0
VERTEX
  8
0
  6
CONTINUOUS
 10
3.422320
 20
5.454680
  0
VERTEX
  8
0
  6
CONTINUOUS
 10
3.421000
 20
6.210600
  0
VERTEX
  8
0
  6
CONTINUOUS
 10
3.432440
 20
6.210160
  0
VERTEX
  8
0
  6
CONTINUOUS
 10
3.433320
 20
5.454240
  0
VERTEX
  8
0
  6
CONTINUOUS
 10
3.422320
 20
5.454680
  0
SEQEND
  8
0
  0
SOLID
  8
0
 62
    15
 10
3.433320
 20
5.454240
 11
3.432440
 21
6.210160
 12
3.445200
 22
5.451600
 13
3.443880
 23
6.207520
  0
POLYLINE
  8
0
  6
CONTINUOUS
 66
     1
 40
0.000000
 41
0.000000
  0
VERTEX
  8
0
  6
CONTINUOUS
 10
3.433320
 20
5.454240
  0
VERTEX
  8
0
  6
CONTINUOUS
 10
3.432440
 20
6.210160
  0
VERTEX
  8
0
  6
CONTINUOUS
 10
3.443880
 20
6.207520
  0
VERTEX
  8
0
  6
CONTINUOUS
 10
3.445200
 20
5.451600
  0
VERTEX
  8
0
  6
CONTINUOUS
 10
3.433320
 20
5.454240
  0
SEQEND
  8
0
  0
SOLID
  8
0
 62
    15
 10
3.445200
 20
5.451600
 11
3.443880
 21
6.207520
 12
3.457080
 22
5.447200
 13
3.455760
 23
6.203120
  0
POLYLINE
  8
0
  6
CONTINUOUS
 66
     1
 40
0.000000
 41
0.000000
  0
VERTEX
  8
0
  6
CONTINUOUS
 10
3.445200
 20
5.451600
  0
VERTEX
  8
0
  6
CONTINUOUS
 10
3.443880
 20
6.207520
  0
VERTEX
  8
0
  6
CONTINUOUS
 10
3.455760
 20
6.203120
  0
VERTEX
  8
0
  6
CONTINUOUS
 10
3.457080
 20
5.447200
  0
VERTEX
  8
0
  6
CONTINUOUS
 10
3.445200
 20
5.451600
  0
SEQEND
  8
0
  0
SOLID
  8
0
 62
    15
 10
3.457080
 20
5.447200
 11
3.455760
 21
6.203120
 12
3.469400
 22
5.441040
 13
3.468080
 23
6.196960
  0
POLYLINE
  8
0
  6
CONTINUOUS
 66
     1
 40
0.000000
 41
0.000000
  0
VERTEX
  8
0
  6
CONTINUOUS
 10
3.457080
 20
5.447200
  0
VERTEX
  8
0
  6
CONTINUOUS
 10
3.455760
 20
6.203120
  0
VERTEX
  8
0
  6
CONTINUOUS
 10
3.468080
 20
6.196960
  0
VERTEX
  8
0
  6
CONTINUOUS
 10
3.469400
 20
5.441040
  0
VERTEX
  8
0
  6
CONTINUOUS
 10
3.457080
 20
5.447200
  0
SEQEND
  8
0
  0
SOLID
  8
0
 62
    15
 10
3.469400
 20
5.441040
 11
3.468080
 21
6.196960
 12
3.482160
 22
5.433560
 13
3.480840
 23
6.189480
  0
POLYLINE
  8
0
  6
CONTINUOUS
 66
     1
 40
0.000000
 41
0.000000
  0
VERTEX
  8
0
  6
CONTINUOUS
 10
3.469400
 20
5.441040
  0
VERTEX
  8
0
  6
CONTINUOUS
 10
3.468080
 20
6.196960
  0
VERTEX
  8
0
  6
CONTINUOUS
 10
3.480840
 20
6.189480
  0
VERTEX
  8
0
  6
CONTINUOUS
 10
3.482160
 20
5.433560
  0
VERTEX
  8
0
  6
CONTINUOUS
 10
3.469400
 20
5.441040
  0
SEQEND
  8
0
  0
SOLID
  8
0
 62
    15
 10
3.482160
 20
5.433560
 11
3.480840
 21
6.189480
 12
3.494920
 22
5.425200
 13
3.493600
 23
6.181120
  0
POLYLINE
  8
0
  6
CONTINUOUS
 66
     1
 40
0.000000
 41
0.000000
  0
VERTEX
  8
0
  6
CONTINUOUS
 10
3.482160
 20
5.433560
  0
VERTEX
  8
0
  6
CONTINUOUS
 10
3.480840
 20
6.189480
  0
VERTEX
  8
0
  6
CONTINUOUS
 10
3.493600
 20
6.181120
  0
VERTEX
  8
0
  6
CONTINUOUS
 10
3.494920
 20
5.425200
  0
VERTEX
  8
0
  6
CONTINUOUS
 10
3.482160
 20
5.433560
  0
SEQEND
  8
0
  0
SOLID
  8
0
 62
    15
 10
3.494920
 20
5.425200
 11
3.493600
 21
6.181120
 12
3.520880
 22
5.405400
 13
3.519560
 23
6.161320
  0
POLYLINE
  8
0
  6
CONTINUOUS
 66
     1
 40
0.000000
 41
0.000000
  0
VERTEX
  8
0
  6
CONTINUOUS
 10
3.494920
 20
5.425200
  0
VERTEX
  8
0
  6
CONTINUOUS
 10
3.493600
 20
6.181120
  0
VERTEX
  8
0
  6
CONTINUOUS
 10
3.519560
 20
6.161320
  0
VERTEX
  8
0
  6
CONTINUOUS
 10
3.520880
 20
5.405400
  0
VERTEX
  8
0
  6
CONTINUOUS
 10
3.494920
 20
5.425200
  0
SEQEND
  8
0
  0
SOLID
  8
0
 62
    15
 10
3.281080
 20
5.375480
 11
3.279760
 21
6.131400
 12
3.318040
 22
5.375480
 13
3.316720
 23
6.131400
  0
POLYLINE
  8
0
  6
CONTINUOUS
 66
     1
 40
0.000000
 41
0.000000
  0
VERTEX
  8
0
  6
CONTINUOUS
 10
3.281080
 20
5.375480
  0
VERTEX
  8
0
  6
CONTINUOUS
 10
3.279760
 20
6.131400
  0
VERTEX
  8
0
  6
CONTINUOUS
 10
3.316720
 20
6.131400
  0
VERTEX
  8
0
  6
CONTINUOUS
 10
3.318040
 20
5.375480
  0
VERTEX
  8
0
  6
CONTINUOUS
 10
3.281080
 20
5.375480
  0
SEQEND
  8
0
  0
SOLID
  8
0
 62
    15
 10
3.540240
 20
5.390000
 11
3.538920
 21
6.145920
 12
3.559160
 22
5.374600
 13
3.557840
 23
6.130520
  0
POLYLINE
  8
0
  6
CONTINUOUS
 66
     1
 40
0.000000
 41
0.000000
  0
VERTEX
  8
0
  6
CONTINUOUS
 10
3.540240
 20
5.390000
  0
VERTEX
  8
0
  6
CONTINUOUS
 10
3.538920
 20
6.145920
  0
VERTEX
  8
0
  6
CONTINUOUS
 10
3.557840
 20
6.130520
  0
VERTEX
  8
0
  6
CONTINUOUS
 10
3.559160
 20
5.374600
  0
VERTEX
  8
0
  6
CONTINUOUS
 10
3.540240
 20
5.390000
  0
SEQEND
  8
0
  0
SOLID
  8
0
 62
    15
 10
3.559160
 20
5.374600
 11
3.557840
 21
6.130520
 12
3.571480
 22
5.364920
 13
3.570160
 23
6.120840
  0
POLYLINE
  8
0
  6
CONTINUOUS
 66
     1
 40
0.000000
 41
0.000000
  0
VERTEX
  8
0
  6
CONTINUOUS
 10
3.559160
 20
5.374600
  0
VERTEX
  8
0
  6
CONTINUOUS
 10
3.557840
 20
6.130520
  0
VERTEX
  8
0
  6
CONTINUOUS
 10
3.570160
 20
6.120840
  0
VERTEX
  8
0
  6
CONTINUOUS
 10
3.571480
 20
5.364920
  0
VERTEX
  8
0
  6
CONTINUOUS
 10
3.559160
 20
5.374600
  0
SEQEND
  8
0
  0
SOLID
  8
0
 62
    15
 10
3.571480
 20
5.364920
 11
3.570160
 21
6.120840
 12
3.583360
 22
5.355680
 13
3.582480
 23
6.111600
  0
POLYLINE
  8
0
  6
CONTINUOUS
 66
     1
 40
0.000000
 41
0.000000
  0
VERTEX
  8
0
  6
CONTINUOUS
 10
3.571480
 20
5.364920
  0
VERTEX
  8
0
  6
CONTINUOUS
 10
3.570160
 20
6.120840
  0
VERTEX
  8
0
  6
CONTINUOUS
 10
3.582480
 20
6.111600
  0
VERTEX
  8
0
  6
CONTINUOUS
 10
3.583360
 20
5.355680
  0
VERTEX
  8
0
  6
CONTINUOUS
 10
3.571480
 20
5.364920
  0
SEQEND
  8
0
  0
SOLID
  8
0
 62
    15
 10
3.583360
 20
5.355680
 11
3.582480
 21
6.111600
 12
3.595240
 22
5.347320
 13
3.593920
 23
6.103240
  0
POLYLINE
  8
0
  6
CONTINUOUS
 66
     1
 40
0.000000
 41
0.000000
  0
VERTEX
  8
0
  6
CONTINUOUS
 10
3.583360
 20
5.355680
  0
VERTEX
  8
0
  6
CONTINUOUS
 10
3.582480
 20
6.111600
  0
VERTEX
  8
0
  6
CONTINUOUS
 10
3.593920
 20
6.103240
  0
VERTEX
  8
0
  6
CONTINUOUS
 10
3.595240
 20
5.347320
  0
VERTEX
  8
0
  6
CONTINUOUS
 10
3.583360
 20
5.355680
  0
SEQEND
  8
0
  0
SOLID
  8
0
 62
    15
 10
3.595240
 20
5.347320
 11
3.593920
 21
6.103240
 12
3.606240
 22
5.340280
 13
3.604920
 23
6.096200
  0
POLYLINE
  8
0
  6
CONTINUOUS
 66
     1
 40
0.000000
 41
0.000000
  0
VERTEX
  8
0
  6
CONTINUOUS
 10
3.595240
 20
5.347320
  0
VERTEX
  8
0
  6
CONTINUOUS
 10
3.593920
 20
6.103240
  0
VERTEX
  8
0
  6
CONTINUOUS
 10
3.604920
 20
6.096200
  0
VERTEX
  8
0
  6
CONTINUOUS
 10
3.606240
 20
5.340280
  0
VERTEX
  8
0
  6
CONTINUOUS
 10
3.595240
 20
5.347320
  0
SEQEND
  8
0
  0
SOLID
  8
0
 62
    15
 10
3.606240
 20
5.340280
 11
3.604920
 21
6.096200
 12
3.616360
 22
5.335000
 13
3.615480
 23
6.090920
  0
POLYLINE
  8
0
  6
CONTINUOUS
 66
     1
 40
0.000000
 41
0.000000
  0
VERTEX
  8
0
  6
CONTINUOUS
 10
3.606240
 20
5.340280
  0
VERTEX
  8
0
  6
CONTINUOUS
 10
3.604920
 20
6.096200
  0
VERTEX
  8
0
  6
CONTINUOUS
 10
3.615480
 20
6.090920
  0
VERTEX
  8
0
  6
CONTINUOUS
 10
3.616360
 20
5.335000
  0
VERTEX
  8
0
  6
CONTINUOUS
 10
3.606240
 20
5.340280
  0
SEQEND
  8
0
  0
SOLID
  8
0
 62
    15
 10
3.616360
 20
5.335000
 11
3.615480
 21
6.090920
 12
3.636600
 22
5.327080
 13
3.635280
 23
6.083000
  0
POLYLINE
  8
0
  6
CONTINUOUS
 66
     1
 40
0.000000
 41
0.000000
  0
VERTEX
  8
0
  6
CONTINUOUS
 10
3.616360
 20
5.335000
  0
VERTEX
  8
0
  6
CONTINUOUS
 10
3.615480
 20
6.090920
  0
VERTEX
  8
0
  6
CONTINUOUS
 10
3.635280
 20
6.083000
  0
VERTEX
  8
0
  6
CONTINUOUS
 10
3.636600
 20
5.327080
  0
VERTEX
  8
0
  6
CONTINUOUS
 10
3.616360
 20
5.335000
  0
SEQEND
  8
0
  0
SOLID
  8
0
 62
    15
 10
3.636600
 20
5.327080
 11
3.635280
 21
6.083000
 12
3.655520
 22
5.322240
 13
3.654200
 23
6.078160
  0
POLYLINE
  8
0
  6
CONTINUOUS
 66
     1
 40
0.000000
 41
0.000000
  0
VERTEX
  8
0
  6
CONTINUOUS
 10
3.636600
 20
5.327080
  0
VERTEX
  8
0
  6
CONTINUOUS
 10
3.635280
 20
6.083000
  0
VERTEX
  8
0
  6
CONTINUOUS
 10
3.654200
 20
6.078160
  0
VERTEX
  8
0
  6
CONTINUOUS
 10
3.655520
 20
5.322240
  0
VERTEX
  8
0
  6
CONTINUOUS
 10
3.636600
 20
5.327080
  0
SEQEND
  8
0
  0
SOLID
  8
0
 62
    15
 10
3.655520
 20
5.322240
 11
3.654200
 21
6.078160
 12
3.673120
 22
5.317840
 13
3.671800
 23
6.073760
  0
POLYLINE
  8
0
  6
CONTINUOUS
 66
     1
 40
0.000000
 41
0.000000
  0
VERTEX
  8
0
  6
CONTINUOUS
 10
3.655520
 20
5.322240
  0
VERTEX
  8
0
  6
CONTINUOUS
 10
3.654200
 20
6.078160
  0
VERTEX
  8
0
  6
CONTINUOUS
 10
3.671800
 20
6.073760
  0
VERTEX
  8
0
  6
CONTINUOUS
 10
3.673120
 20
5.317840
  0
VERTEX
  8
0
  6
CONTINUOUS
 10
3.655520
 20
5.322240
  0
SEQEND
  8
0
  0
SOLID
  8
0
 62
    15
 10
3.673120
 20
5.317840
 11
3.671800
 21
6.073760
 12
3.688520
 22
5.312560
 13
3.687200
 23
6.068480
  0
POLYLINE
  8
0
  6
CONTINUOUS
 66
     1
 40
0.000000
 41
0.000000
  0
VERTEX
  8
0
  6
CONTINUOUS
 10
3.673120
 20
5.317840
  0
VERTEX
  8
0
  6
CONTINUOUS
 10
3.671800
 20
6.073760
  0
VERTEX
  8
0
  6
CONTINUOUS
 10
3.687200
 20
6.068480
  0
VERTEX
  8
0
  6
CONTINUOUS
 10
3.688520
 20
5.312560
  0
VERTEX
  8
0
  6
CONTINUOUS
 10
3.673120
 20
5.317840
  0
SEQEND
  8
0
  0
SOLID
  8
0
 62
    15
 10
3.688520
 20
5.312560
 11
3.687200
 21
6.068480
 12
3.695120
 22
5.309480
 13
3.694240
 23
6.065400
  0
POLYLINE
  8
0
  6
CONTINUOUS
 66
     1
 40
0.000000
 41
0.000000
  0
VERTEX
  8
0
  6
CONTINUOUS
 10
3.688520
 20
5.312560
  0
VERTEX
  8
0
  6
CONTINUOUS
 10
3.687200
 20
6.068480
  0
VERTEX
  8
0
  6
CONTINUOUS
 10
3.694240
 20
6.065400
  0
VERTEX
  8
0
  6
CONTINUOUS
 10
3.695120
 20
5.309480
  0
VERTEX
  8
0
  6
CONTINUOUS
 10
3.688520
 20
5.312560
  0
SEQEND
  8
0
  0
SOLID
  8
0
 62
    15
 10
3.695120
 20
5.309480
 11
3.694240
 21
6.065400
 12
3.701280
 22
5.305080
 13
3.700400
 23
6.061000
  0
POLYLINE
  8
0
  6
CONTINUOUS
 66
     1
 40
0.000000
 41
0.000000
  0
VERTEX
  8
0
  6
CONTINUOUS
 10
3.695120
 20
5.309480
  0
VERTEX
  8
0
  6
CONTINUOUS
 10
3.694240
 20
6.065400
  0
VERTEX
  8
0
  6
CONTINUOUS
 10
3.700400
 20
6.061000
  0
VERTEX
  8
0
  6
CONTINUOUS
 10
3.701280
 20
5.305080
  0
VERTEX
  8
0
  6
CONTINUOUS
 10
3.695120
 20
5.309480
  0
SEQEND
  8
0
  0
SOLID
  8
0
 62
    15
 10
3.701280
 20
5.305080
 11
3.700400
 21
6.061000
 12
3.707000
 22
5.299800
 13
3.705680
 23
6.055720
  0
POLYLINE
  8
0
  6
CONTINUOUS
 66
     1
 40
0.000000
 41
0.000000
  0
VERTEX
  8
0
  6
CONTINUOUS
 10
3.701280
 20
5.305080
  0
VERTEX
  8
0
  6
CONTINUOUS
 10
3.700400
 20
6.061000
  0
VERTEX
  8
0
  6
CONTINUOUS
 10
3.705680
 20
6.055720
  0
VERTEX
  8
0
  6
CONTINUOUS
 10
3.707000
 20
5.299800
  0
VERTEX
  8
0
  6
CONTINUOUS
 10
3.701280
 20
5.305080
  0
SEQEND
  8
0
  0
SOLID
  8
0
 62
    15
 10
3.707000
 20
5.299800
 11
3.705680
 21
6.055720
 12
3.711400
 22
5.293640
 13
3.710520
 23
6.049560
  0
POLYLINE
  8
0
  6
CONTINUOUS
 66
     1
 40
0.000000
 41
0.000000
  0
VERTEX
  8
0
  6
CONTINUOUS
 10
3.707000
 20
5.299800
  0
VERTEX
  8
0
  6
CONTINUOUS
 10
3.705680
 20
6.055720
  0
VERTEX
  8
0
  6
CONTINUOUS
 10
3.710520
 20
6.049560
  0
VERTEX
  8
0
  6
CONTINUOUS
 10
3.711400
 20
5.293640
  0
VERTEX
  8
0
  6
CONTINUOUS
 10
3.707000
 20
5.299800
  0
SEQEND
  8
0
  0
SOLID
  8
0
 62
    15
 10
3.711400
 20
5.293640
 11
3.710520
 21
6.049560
 12
3.715360
 22
5.285720
 13
3.714040
 23
6.041640
  0
POLYLINE
  8
0
  6
CONTINUOUS
 66
     1
 40
0.000000
 41
0.000000
  0
VERTEX
  8
0
  6
CONTINUOUS
 10
3.711400
 20
5.293640
  0
VERTEX
  8
0
  6
CONTINUOUS
 10
3.710520
 20
6.049560
  0
VERTEX
  8
0
  6
CONTINUOUS
 10
3.714040
 20
6.041640
  0
VERTEX
  8
0
  6
CONTINUOUS
 10
3.715360
 20
5.285720
  0
VERTEX
  8
0
  6
CONTINUOUS
 10
3.711400
 20
5.293640
  0
SEQEND
  8
0
  0
SOLID
  8
0
 62
    15
 10
3.715360
 20
5.285720
 11
3.714040
 21
6.041640
 12
3.718000
 22
5.276040
 13
3.717120
 23
6.031960
  0
POLYLINE
  8
0
  6
CONTINUOUS
 66
     1
 40
0.000000
 41
0.000000
  0
VERTEX
  8
0
  6
CONTINUOUS
 10
3.715360
 20
5.285720
  0
VERTEX
  8
0
  6
CONTINUOUS
 10
3.714040
 20
6.041640
  0
VERTEX
  8
0
  6
CONTINUOUS
 10
3.717120
 20
6.031960
  0
VERTEX
  8
0
  6
CONTINUOUS
 10
3.718000
 20
5.276040
  0
VERTEX
  8
0
  6
CONTINUOUS
 10
3.715360
 20
5.285720
  0
SEQEND
  8
0
  0
SOLID
  8
0
 62
    15
 10
3.718000
 20
5.276040
 11
3.717120
 21
6.031960
 12
3.720200
 22
5.264600
 13
3.718880
 23
6.020520
  0
POLYLINE
  8
0
  6
CONTINUOUS
 66
     1
 40
0.000000
 41
0.000000
  0
VERTEX
  8
0
  6
CONTINUOUS
 10
3.718000
 20
5.276040
  0
VERTEX
  8
0
  6
CONTINUOUS
 10
3.717120
 20
6.031960
  0
VERTEX
  8
0
  6
CONTINUOUS
 10
3.718880
 20
6.020520
  0
VERTEX
  8
0
  6
CONTINUOUS
 10
3.720200
 20
5.264600
  0
VERTEX
  8
0
  6
CONTINUOUS
 10
3.718000
 20
5.276040
  0
SEQEND
  8
0
  0
SOLID
  8
0
 62
    15
 10
3.720200
 20
5.264600
 11
3.718880
 21
6.020520
 12
3.720640
 22
5.250960
 13
3.719760
 23
6.006880
  0
POLYLINE
  8
0
  6
CONTINUOUS
 66
     1
 40
0.000000
 41
0.000000
  0
VERTEX
  8
0
  6
CONTINUOUS
 10
3.720200
 20
5.264600
  0
VERTEX
  8
0
  6
CONTINUOUS
 10
3.718880
 20
6.020520
  0
VERTEX
  8
0
  6
CONTINUOUS
 10
3.719760
 20
6.006880
  0
VERTEX
  8
0
  6
CONTINUOUS
 10
3.720640
 20
5.250960
  0
VERTEX
  8
0
  6
CONTINUOUS
 10
3.720200
 20
5.264600
  0
SEQEND
  8
0
  0
POLYLINE
  8
0
  6
CONTINUOUS
 66
     1
 40
0.000000
 41
0.000000
  0
VERTEX
  8
0
  6
CONTINUOUS
 10
3.720640
 20
5.249640
  0
VERTEX
  8
0
  6
CONTINUOUS
 10
3.281080
 20
5.249640
  0
VERTEX
  8
0
  6
CONTINUOUS
 10
3.281080
 20
5.375480
  0
VERTEX
  8
0
  6
CONTINUOUS
 10
3.318040
 20
5.375480
  0
VERTEX
  8
0
  6
CONTINUOUS
 10
3.318920
 20
5.382520
  0
VERTEX
  8
0
  6
CONTINUOUS
 10
3.320240
 20
5.389560
  0
VERTEX
  8
0
  6
CONTINUOUS
 10
3.326400
 20
5.403200
  0
VERTEX
  8
0
  6
CONTINUOUS
 10
3.336080
 20
5.415960
  0
VERTEX
  8
0
  6
CONTINUOUS
 10
3.348840
 20
5.427840
  0
VERTEX
  8
0
  6
CONTINUOUS
 10
3.364240
 20
5.437960
  0
VERTEX
  8
0
  6
CONTINUOUS
 10
3.381840
 20
5.445880
  0
VERTEX
  8
0
  6
CONTINUOUS
 10
3.401200
 20
5.451600
  0
VERTEX
  8
0
  6
CONTINUOUS
 10
3.422320
 20
5.454680
  0
VERTEX
  8
0
  6
CONTINUOUS
 10
3.433320
 20
5.454240
  0
VERTEX
  8
0
  6
CONTINUOUS
 10
3.445200
 20
5.451600
  0
VERTEX
  8
0
  6
CONTINUOUS
 10
3.457080
 20
5.447200
  0
VERTEX
  8
0
  6
CONTINUOUS
 10
3.469400
 20
5.441040
  0
VERTEX
  8
0
  6
CONTINUOUS
 10
3.482160
 20
5.433560
  0
VERTEX
  8
0
  6
CONTINUOUS
 10
3.494920
 20
5.425200
  0
VERTEX
  8
0
  6
CONTINUOUS
 10
3.520880
 20
5.405400
  0
VERTEX
  8
0
  6
CONTINUOUS
 10
3.540240
 20
5.390000
  0
VERTEX
  8
0
  6
CONTINUOUS
 10
3.559160
 20
5.374600
  0
VERTEX
  8
0
  6
CONTINUOUS
 10
3.571480
 20
5.364920
  0
VERTEX
  8
0
  6
CONTINUOUS
 10
3.583360
 20
5.355680
  0
VERTEX
  8
0
  6
CONTINUOUS
 10
3.595240
 20
5.347320
  0
VERTEX
  8
0
  6
CONTINUOUS
 10
3.606240
 20
5.340280
  0
VERTEX
  8
0
  6
CONTINUOUS
 10
3.616360
 20
5.335000
  0
VERTEX
  8
0
  6
CONTINUOUS
 10
3.636600
 20
5.327080
  0
VERTEX
  8
0
  6
CONTINUOUS
 10
3.655520
 20
5.322240
  0
VERTEX
  8
0
  6
CONTINUOUS
 10
3.673120
 20
5.317840
  0
VERTEX
  8
0
  6
CONTINUOUS
 10
3.688520
 20
5.312560
  0
VERTEX
  8
0
  6
CONTINUOUS
 10
3.695120
 20
5.309480
  0
VERTEX
  8
0
  6
CONTINUOUS
 10
3.701280
 20
5.305080
  0
VERTEX
  8
0
  6
CONTINUOUS
 10
3.707000
 20
5.299800
  0
VERTEX
  8
0
  6
CONTINUOUS
 10
3.711400
 20
5.293640
  0
VERTEX
  8
0
  6
CONTINUOUS
 10
3.715360
 20
5.285720
  0
VERTEX
  8
0
  6
CONTINUOUS
 10
3.718000
 20
5.276040
  0
VERTEX
  8
0
  6
CONTINUOUS
 10
3.720200
 20
5.264600
  0
VERTEX
  8
0
  6
CONTINUOUS
 10
3.720640
 20
5.250960
  0
VERTEX
  8
0
  6
CONTINUOUS
 10
3.720640
 20
5.249640
  0
SEQEND
  8
0
  0
TEXT
  8
0
 10
3.204520
 20
5.023920
 40
0.138154
  1
BA  625
 41
1.000000
  7
SN0
 71
     0
 72
     5
 11
3.794390
 21
5.023920
  0
TEXT
  8
0
 10
3.016200
 20
4.832520
 40
0.138154
  1
3/16" X 7/16"
 41
1.000000
  7
SN0
 71
     0
 72
     5
 11
3.980969
 21
4.832520
  0
POLYLINE
  8
0
  6
CONTINUOUS
 66
     1
 40
0.014080
 41
0.014080
  0
VERTEX
  8
0
  6
CONTINUOUS
 10
5.317840
 20
5.585360
  0
VERTEX
  8
0
  6
CONTINUOUS
 10
5.317400
 20
5.592400
  0
VERTEX
  8
0
  6
CONTINUOUS
 10
5.316960
 20
5.599000
  0
VERTEX
  8
0
  6
CONTINUOUS
 10
5.315200
 20
5.610440
  0
VERTEX
  8
0
  6
CONTINUOUS
 10
5.312560
 20
5.619680
  0
VERTEX
  8
0
  6
CONTINUOUS
 10
5.308600
 20
5.627600
  0
VERTEX
  8
0
  6
CONTINUOUS
 10
5.303760
 20
5.634200
  0
VERTEX
  8
0
  6
CONTINUOUS
 10
5.298480
 20
5.639480
  0
VERTEX
  8
0
  6
CONTINUOUS
 10
5.292320
 20
5.643440
  0
VERTEX
  8
0
  6
CONTINUOUS
 10
5.285720
 20
5.646960
  0
VERTEX
  8
0
  6
CONTINUOUS
 10
5.278240
 20
5.649600
  0
VERTEX
  8
0
  6
CONTINUOUS
 10
5.269880
 20
5.652240
  0
VERTEX
  8
0
  6
CONTINUOUS
 10
5.252720
 20
5.656640
  0
VERTEX
  8
0
  6
CONTINUOUS
 10
5.233360
 20
5.661480
  0
VERTEX
  8
0
  6
CONTINUOUS
 10
5.223680
 20
5.665000
  0
VERTEX
  8
0
  6
CONTINUOUS
 10
5.213560
 20
5.669400
  0
VERTEX
  8
0
  6
CONTINUOUS
 10
5.203000
 20
5.675120
  0
VERTEX
  8
0
  6
CONTINUOUS
 10
5.192000
 20
5.681720
  0
VERTEX
  8
0
  6
CONTINUOUS
 10
5.180560
 20
5.690080
  0
VERTEX
  8
0
  6
CONTINUOUS
 10
5.168240
 20
5.699320
  0
VERTEX
  8
0
  6
CONTINUOUS
 10
5.143600
 20
5.719120
  0
VERTEX
  8
0
  6
CONTINUOUS
 10
5.117640
 20
5.739800
  0
VERTEX
  8
0
  6
CONTINUOUS
 10
5.091680
 20
5.759160
  0
VERTEX
  8
0
  6
CONTINUOUS
 10
5.078920
 20
5.767960
  0
VERTEX
  8
0
  6
CONTINUOUS
 10
5.066160
 20
5.775440
  0
VERTEX
  8
0
  6
CONTINUOUS
 10
5.053840
 20
5.781600
  0
VERTEX
  8
0
  6
CONTINUOUS
 10
5.041960
 20
5.786000
  0
VERTEX
  8
0
  6
CONTINUOUS
 10
5.030520
 20
5.788640
  0
VERTEX
  8
0
  6
CONTINUOUS
 10
5.019520
 20
5.789080
  0
VERTEX
  8
0
  6
CONTINUOUS
 10
5.008960
 20
5.788200
  0
VERTEX
  8
0
  6
CONTINUOUS
 10
4.998400
 20
5.786000
  0
VERTEX
  8
0
  6
CONTINUOUS
 10
4.988280
 20
5.783800
  0
VERTEX
  8
0
  6
CONTINUOUS
 10
4.969800
 20
5.776760
  0
VERTEX
  8
0
  6
CONTINUOUS
 10
4.961000
 20
5.772360
  0
VERTEX
  8
0
  6
CONTINUOUS
 10
4.953080
 20
5.767520
  0
VERTEX
  8
0
  6
CONTINUOUS
 10
4.945600
 20
5.762240
  0
VERTEX
  8
0
  6
CONTINUOUS
 10
4.939000
 20
5.756520
  0
VERTEX
  8
0
  6
CONTINUOUS
 10
4.932840
 20
5.750360
  0
VERTEX
  8
0
  6
CONTINUOUS
 10
4.928000
 20
5.744200
  0
VERTEX
  8
0
  6
CONTINUOUS
 10
4.923600
 20
5.737600
  0
VERTEX
  8
0
  6
CONTINUOUS
 10
4.920080
 20
5.730560
  0
VERTEX
  8
0
  6
CONTINUOUS
 10
4.917440
 20
5.723960
  0
VERTEX
  8
0
  6
CONTINUOUS
 10
4.915680
 20
5.716920
  0
VERTEX
  8
0
  6
CONTINUOUS
 10
4.915240
 20
5.709880
  0
VERTEX
  8
0
  6
CONTINUOUS
 10
4.877840
 20
5.709880
  0
VERTEX
  8
0
  6
CONTINUOUS
 10
4.877840
 20
5.584040
  0
VERTEX
  8
0
  6
CONTINUOUS
 10
5.317840
 20
5.584040
  0
VERTEX
  8
0
  6
CONTINUOUS
 10
5.317840
 20
5.585360
  0
SEQEND
  8
0
  0
TEXT
  8
0
 10
4.704040
 20
5.346000
 40
0.138154
  1
BA  625
 41
1.000000
  7
SN0
 71
     0
 72
     5
 11
5.293910
 21
5.346000
  0
TEXT
  8
0
 10
4.515720
 20
5.154600
 40
0.138154
  1
3/16" X 7/16"
 41
1.000000
  7
SN0
 71
     0
 72
     5
 11
5.480489
 21
5.154600
  0
ENDSEC
  0
EOF
