  0
SECTION
  2
HEADER
  9
$ACADVER
  1
AC1006
  9
$EXTMIN
 10
1.104840
 20
0.691680
  9
$EXTMAX
 10
7.259560
 20
3.567960
  9
$LTSCALE
 40
0.044000
  9
$PDMODE
 70
    35
  9
$PDSIZE
 40
0.035200
  0
ENDSEC
  0
SECTION
  2
TABLES
  0
TABLE
  2
LTYPE
 70
     9
  0
LTYPE
  2
CONTINUOUS
 70
    64
  3
Solid line
 72
    65
 73
     0
 40
0.000000
  0
LTYPE
  2
DASHED
 70
    64
  3
__ __ __ __ __ __ __ __ __ __ __ __ __ __ __
 72
    65
 73
     2
 40
0.000330
 49
0.000220
 49
-0.000110
  0
LTYPE
  2
HIDDEN
 70
    64
  3
 _ _ _ _ _ _ _ _ _ _ _ _ _ _ _ _ _ _ _ _ _ _
 72
    65
 73
     2
 40
0.000165
 49
0.000110
 49
-0.000055
  0
LTYPE
  2
CENTER
 70
    64
  3
____ _ ____ _ ____ _ ____ _ ____ _ ____ _ ____
 72
    65
 73
     4
 40
0.000880
 49
0.000550
 49
-0.000110
 49
0.000110
 49
-0.000110
  0
LTYPE
  2
PHANTOM
 70
    64
  3
_____ _ _ _____ _ _ _____ _ _ _____ _ _ ____
 72
    65
 73
     6
 40
0.001100
 49
0.000550
 49
-0.000110
 49
0.000110
 49
-0.000110
 49
0.000110
 49
-0.000110
  0
LTYPE
  2
DOT
 70
    64
  3
...............................................
 72
    65
 73
     2
 40
0.000110
 49
0.000000
 49
-0.000110
  0
LTYPE
  2
DASHDOT
 70
    64
  3
__ . __ . __ . __ . __ . __ . __ . __ . __ . __
 72
    65
 73
     4
 40
0.000440
 49
0.000220
 49
-0.000110
 49
0.000000
 49
-0.000110
  0
LTYPE
  2
BORDER
 70
    64
  3
__ __ . __ __ . __ __ . __ __ . __ __ . __ __
 72
    65
 73
     6
 40
0.000770
 49
0.000220
 49
-0.000110
 49
0.000220
 49
-0.000110
 49
0.000000
 49
-0.000110
  0
LTYPE
  2
DIVIDE
 70
    64
  3
__ . . __ . . __ . . __ . . __ . . __ . . __
 72
    65
 73
     6
 40
0.000550
 49
0.000220
 49
-0.000110
 49
0.000000
 49
-0.000110
 49
0.000000
 49
-0.000110
  0
LTYPE
  2
DOTDOT
 70
    64
  3
 . .  . .  . .  . .  . .  . . 
 72
    65
 73
     5
 40
0.000242
 49
-0.000110
 49
0.000000
 49
-0.000110
 49
0.000000
 49
-0.000110
  0
ENDTAB
  0
TABLE
  2
STYLE
 70
     2
  0
STYLE
 70
     0
  2
SN0
 40
0.000000
 41
0.000440
 50
0.000000
 71
     0
 42
0.000000
  3
ROMAND
  0
STYLE
 70
    68
  2
SV0
 40
0.000000
 41
0.000440
 50
0.000000
 71
     0
 42
0.000000
  3
ROMAND
  0
ENDTAB
  0
TABLE
  2
LAYER
 70
     3
  0
LAYER
  2
FOREGROUND
 70
    64
 62
     7
  6
CONTINUOUS
  0
LAYER
  2
BACKGROUND
 70
    65
 62
    -7
  6
CONTINUOUS
  0
LAYER
  2
0
 70
    64
 62
     7
  6
CONTINUOUS
  0
ENDTAB
  0
ENDSEC
  0
SECTION
  2
ENTITIES
  0
POLYLINE
  8
FOREGROUND
  6
CONTINUOUS
 66
     1
 40
0.000000
 41
0.000000
  0
VERTEX
  8
FOREGROUND
  6
CONTINUOUS
 10
0.000000
 20
4.259640
  0
VERTEX
  8
FOREGROUND
  6
CONTINUOUS
 10
8.499920
 20
4.259640
  0
VERTEX
  8
FOREGROUND
  6
CONTINUOUS
 10
8.499920
 20
-6.740360
  0
VERTEX
  8
FOREGROUND
  6
CONTINUOUS
 10
0.000000
 20
-6.740360
  0
VERTEX
  8
FOREGROUND
  6
CONTINUOUS
 10
0.000000
 20
4.259640
  0
SEQEND
  8
0
  0
POLYLINE
  8
0
  6
CONTINUOUS
 66
     1
 40
0.014080
 41
0.014080
  0
VERTEX
  8
0
  6
CONTINUOUS
 10
5.366240
 20
3.362480
  0
VERTEX
  8
0
  6
CONTINUOUS
 10
5.261960
 20
3.362480
  0
VERTEX
  8
0
  6
CONTINUOUS
 10
5.255360
 20
3.393280
  0
VERTEX
  8
0
  6
CONTINUOUS
 10
5.243480
 20
3.421440
  0
VERTEX
  8
0
  6
CONTINUOUS
 10
5.227200
 20
3.446960
  0
VERTEX
  8
0
  6
CONTINUOUS
 10
5.206520
 20
3.468960
  0
VERTEX
  8
0
  6
CONTINUOUS
 10
5.181880
 20
3.487000
  0
VERTEX
  8
0
  6
CONTINUOUS
 10
5.154600
 20
3.500640
  0
VERTEX
  8
0
  6
CONTINUOUS
 10
5.124680
 20
3.509440
  0
VERTEX
  8
0
  6
CONTINUOUS
 10
5.093000
 20
3.512080
  0
VERTEX
  8
0
  6
CONTINUOUS
 10
5.061320
 20
3.509000
  0
VERTEX
  8
0
  6
CONTINUOUS
 10
5.031400
 20
3.500640
  0
VERTEX
  8
0
  6
CONTINUOUS
 10
5.004120
 20
3.487000
  0
VERTEX
  8
0
  6
CONTINUOUS
 10
4.979480
 20
3.468960
  0
VERTEX
  8
0
  6
CONTINUOUS
 10
4.958800
 20
3.446960
  0
VERTEX
  8
0
  6
CONTINUOUS
 10
4.942520
 20
3.421880
  0
VERTEX
  8
0
  6
CONTINUOUS
 10
4.930640
 20
3.393280
  0
VERTEX
  8
0
  6
CONTINUOUS
 10
4.924040
 20
3.362920
  0
VERTEX
  8
0
  6
CONTINUOUS
 10
4.814480
 20
3.362480
  0
VERTEX
  8
0
  6
CONTINUOUS
 10
4.807880
 20
3.393280
  0
VERTEX
  8
0
  6
CONTINUOUS
 10
4.796000
 20
3.421440
  0
VERTEX
  8
0
  6
CONTINUOUS
 10
4.779720
 20
3.446960
  0
VERTEX
  8
0
  6
CONTINUOUS
 10
4.759040
 20
3.468960
  0
VERTEX
  8
0
  6
CONTINUOUS
 10
4.734400
 20
3.487000
  0
VERTEX
  8
0
  6
CONTINUOUS
 10
4.707120
 20
3.500640
  0
VERTEX
  8
0
  6
CONTINUOUS
 10
4.677200
 20
3.509000
  0
VERTEX
  8
0
  6
CONTINUOUS
 10
4.645520
 20
3.512080
  0
VERTEX
  8
0
  6
CONTINUOUS
 10
4.613840
 20
3.509000
  0
VERTEX
  8
0
  6
CONTINUOUS
 10
4.583920
 20
3.500640
  0
VERTEX
  8
0
  6
CONTINUOUS
 10
4.556640
 20
3.487000
  0
VERTEX
  8
0
  6
CONTINUOUS
 10
4.532000
 20
3.468960
  0
VERTEX
  8
0
  6
CONTINUOUS
 10
4.511320
 20
3.446960
  0
VERTEX
  8
0
  6
CONTINUOUS
 10
4.495040
 20
3.421880
  0
VERTEX
  8
0
  6
CONTINUOUS
 10
4.483160
 20
3.393280
  0
VERTEX
  8
0
  6
CONTINUOUS
 10
4.476560
 20
3.362920
  0
VERTEX
  8
0
  6
CONTINUOUS
 10
4.368320
 20
3.362480
  0
VERTEX
  8
0
  6
CONTINUOUS
 10
4.361720
 20
3.393280
  0
VERTEX
  8
0
  6
CONTINUOUS
 10
4.349840
 20
3.421440
  0
VERTEX
  8
0
  6
CONTINUOUS
 10
4.333120
 20
3.446960
  0
VERTEX
  8
0
  6
CONTINUOUS
 10
4.312440
 20
3.468960
  0
VERTEX
  8
0
  6
CONTINUOUS
 10
4.288240
 20
3.487000
  0
VERTEX
  8
0
  6
CONTINUOUS
 10
4.260520
 20
3.500640
  0
VERTEX
  8
0
  6
CONTINUOUS
 10
4.230600
 20
3.509000
  0
VERTEX
  8
0
  6
CONTINUOUS
 10
4.198920
 20
3.512080
  0
VERTEX
  8
0
  6
CONTINUOUS
 10
4.167240
 20
3.509000
  0
VERTEX
  8
0
  6
CONTINUOUS
 10
4.137320
 20
3.500640
  0
VERTEX
  8
0
  6
CONTINUOUS
 10
4.110040
 20
3.487000
  0
VERTEX
  8
0
  6
CONTINUOUS
 10
4.085840
 20
3.468960
  0
VERTEX
  8
0
  6
CONTINUOUS
 10
4.065160
 20
3.446960
  0
VERTEX
  8
0
  6
CONTINUOUS
 10
4.048440
 20
3.421880
  0
VERTEX
  8
0
  6
CONTINUOUS
 10
4.036560
 20
3.393280
  0
VERTEX
  8
0
  6
CONTINUOUS
 10
4.029960
 20
3.362920
  0
VERTEX
  8
0
  6
CONTINUOUS
 10
3.918200
 20
3.362480
  0
VERTEX
  8
0
  6
CONTINUOUS
 10
3.911600
 20
3.393280
  0
VERTEX
  8
0
  6
CONTINUOUS
 10
3.900160
 20
3.421440
  0
VERTEX
  8
0
  6
CONTINUOUS
 10
3.883440
 20
3.446960
  0
VERTEX
  8
0
  6
CONTINUOUS
 10
3.862760
 20
3.468960
  0
VERTEX
  8
0
  6
CONTINUOUS
 10
3.838560
 20
3.487000
  0
VERTEX
  8
0
  6
CONTINUOUS
 10
3.810840
 20
3.500640
  0
VERTEX
  8
0
  6
CONTINUOUS
 10
3.780920
 20
3.509440
  0
VERTEX
  8
0
  6
CONTINUOUS
 10
3.749240
 20
3.512080
  0
VERTEX
  8
0
  6
CONTINUOUS
 10
3.717560
 20
3.509000
  0
VERTEX
  8
0
  6
CONTINUOUS
 10
3.687640
 20
3.500640
  0
VERTEX
  8
0
  6
CONTINUOUS
 10
3.660360
 20
3.487000
  0
VERTEX
  8
0
  6
CONTINUOUS
 10
3.636160
 20
3.468960
  0
VERTEX
  8
0
  6
CONTINUOUS
 10
3.615480
 20
3.446960
  0
VERTEX
  8
0
  6
CONTINUOUS
 10
3.598760
 20
3.421880
  0
VERTEX
  8
0
  6
CONTINUOUS
 10
3.586880
 20
3.393280
  0
VERTEX
  8
0
  6
CONTINUOUS
 10
3.580280
 20
3.362920
  0
VERTEX
  8
0
  6
CONTINUOUS
 10
3.479520
 20
3.362920
  0
VERTEX
  8
0
  6
CONTINUOUS
 10
3.479080
 20
3.362040
  0
VERTEX
  8
0
  6
CONTINUOUS
 10
3.472480
 20
3.392840
  0
VERTEX
  8
0
  6
CONTINUOUS
 10
3.460600
 20
3.421000
  0
VERTEX
  8
0
  6
CONTINUOUS
 10
3.444320
 20
3.446520
  0
VERTEX
  8
0
  6
CONTINUOUS
 10
3.423640
 20
3.468520
  0
VERTEX
  8
0
  6
CONTINUOUS
 10
3.399000
 20
3.487000
  0
VERTEX
  8
0
  6
CONTINUOUS
 10
3.371720
 20
3.500640
  0
VERTEX
  8
0
  6
CONTINUOUS
 10
3.341800
 20
3.509000
  0
VERTEX
  8
0
  6
CONTINUOUS
 10
3.310120
 20
3.512080
  0
VERTEX
  8
0
  6
CONTINUOUS
 10
3.278440
 20
3.509000
  0
VERTEX
  8
0
  6
CONTINUOUS
 10
3.248520
 20
3.500640
  0
VERTEX
  8
0
  6
CONTINUOUS
 10
3.221240
 20
3.487000
  0
VERTEX
  8
0
  6
CONTINUOUS
 10
3.196600
 20
3.468960
  0
VERTEX
  8
0
  6
CONTINUOUS
 10
3.175920
 20
3.446960
  0
VERTEX
  8
0
  6
CONTINUOUS
 10
3.159640
 20
3.421440
  0
VERTEX
  8
0
  6
CONTINUOUS
 10
3.147760
 20
3.393280
  0
VERTEX
  8
0
  6
CONTINUOUS
 10
3.141160
 20
3.362480
  0
VERTEX
  8
0
  6
CONTINUOUS
 10
3.032040
 20
3.362480
  0
VERTEX
  8
0
  6
CONTINUOUS
 10
3.010480
 20
3.555200
  0
VERTEX
  8
0
  6
CONTINUOUS
 10
1.585320
 20
3.555200
  0
VERTEX
  8
0
  6
CONTINUOUS
 10
1.588400
 20
3.553880
  0
VERTEX
  8
0
  6
CONTINUOUS
 10
1.578720
 20
3.497560
  0
VERTEX
  8
0
  6
CONTINUOUS
 10
1.565520
 20
3.452240
  0
VERTEX
  8
0
  6
CONTINUOUS
 10
1.546600
 20
3.406040
  0
VERTEX
  8
0
  6
CONTINUOUS
 10
1.521080
 20
3.359840
  0
VERTEX
  8
0
  6
CONTINUOUS
 10
1.488520
 20
3.315840
  0
VERTEX
  8
0
  6
CONTINUOUS
 10
1.462560
 20
3.288120
  0
VERTEX
  8
0
  6
CONTINUOUS
 10
1.433080
 20
3.262600
  0
VERTEX
  8
0
  6
CONTINUOUS
 10
1.399640
 20
3.239720
  0
VERTEX
  8
0
  6
CONTINUOUS
 10
1.362240
 20
3.219480
  0
VERTEX
  8
0
  6
CONTINUOUS
 10
1.320440
 20
3.202320
  0
VERTEX
  8
0
  6
CONTINUOUS
 10
1.298000
 20
3.195280
  0
VERTEX
  8
0
  6
CONTINUOUS
 10
1.249600
 20
3.184280
  0
VERTEX
  8
0
  6
CONTINUOUS
 10
1.223640
 20
3.180320
  0
VERTEX
  8
0
  6
CONTINUOUS
 10
1.168200
 20
3.176360
  0
VERTEX
  8
0
  6
CONTINUOUS
 10
1.168200
 20
2.938320
  0
VERTEX
  8
0
  6
CONTINUOUS
 10
7.252520
 20
2.938320
  0
VERTEX
  8
0
  6
CONTINUOUS
 10
7.252520
 20
3.195280
  0
VERTEX
  8
0
  6
CONTINUOUS
 10
6.592080
 20
3.560480
  0
VERTEX
  8
0
  6
CONTINUOUS
 10
5.396160
 20
3.560480
  0
VERTEX
  8
0
  6
CONTINUOUS
 10
5.373720
 20
3.362920
  0
VERTEX
  8
0
  6
CONTINUOUS
 10
5.366240
 20
3.362480
  0
SEQEND
  8
0
  0
SOLID
  8
0
 62
    15
 10
5.333680
 20
1.835680
 11
5.333680
 21
2.583680
 12
6.529600
 22
1.835680
 13
6.529600
 23
2.583680
  0
POLYLINE
  8
0
  6
CONTINUOUS
 66
     1
 40
0.000000
 41
0.000000
  0
VERTEX
  8
0
  6
CONTINUOUS
 10
5.333680
 20
1.835680
  0
VERTEX
  8
0
  6
CONTINUOUS
 10
5.333680
 20
2.583680
  0
VERTEX
  8
0
  6
CONTINUOUS
 10
6.529600
 20
2.583680
  0
VERTEX
  8
0
  6
CONTINUOUS
 10
6.529600
 20
1.835680
  0
VERTEX
  8
0
  6
CONTINUOUS
 10
5.333680
 20
1.835680
  0
SEQEND
  8
0
  0
SOLID
  8
0
 62
    15
 10
3.974080
 20
1.668480
 11
3.974080
 21
2.416920
 12
3.985960
 22
1.697080
 13
3.985960
 23
2.445080
  0
POLYLINE
  8
0
  6
CONTINUOUS
 66
     1
 40
0.000000
 41
0.000000
  0
VERTEX
  8
0
  6
CONTINUOUS
 10
3.974080
 20
1.668480
  0
VERTEX
  8
0
  6
CONTINUOUS
 10
3.974080
 20
2.416920
  0
VERTEX
  8
0
  6
CONTINUOUS
 10
3.985960
 20
2.445080
  0
VERTEX
  8
0
  6
CONTINUOUS
 10
3.985960
 20
1.697080
  0
VERTEX
  8
0
  6
CONTINUOUS
 10
3.974080
 20
1.668480
  0
SEQEND
  8
0
  0
SOLID
  8
0
 62
    15
 10
3.985960
 20
1.697080
 11
3.985960
 21
2.445080
 12
4.002680
 22
1.722160
 13
4.002680
 23
2.470600
  0
POLYLINE
  8
0
  6
CONTINUOUS
 66
     1
 40
0.000000
 41
0.000000
  0
VERTEX
  8
0
  6
CONTINUOUS
 10
3.985960
 20
1.697080
  0
VERTEX
  8
0
  6
CONTINUOUS
 10
3.985960
 20
2.445080
  0
VERTEX
  8
0
  6
CONTINUOUS
 10
4.002680
 20
2.470600
  0
VERTEX
  8
0
  6
CONTINUOUS
 10
4.002680
 20
1.722160
  0
VERTEX
  8
0
  6
CONTINUOUS
 10
3.985960
 20
1.697080
  0
SEQEND
  8
0
  0
SOLID
  8
0
 62
    15
 10
4.002680
 20
1.722160
 11
4.002680
 21
2.470600
 12
4.023360
 22
1.744160
 13
4.023360
 23
2.492600
  0
POLYLINE
  8
0
  6
CONTINUOUS
 66
     1
 40
0.000000
 41
0.000000
  0
VERTEX
  8
0
  6
CONTINUOUS
 10
4.002680
 20
1.722160
  0
VERTEX
  8
0
  6
CONTINUOUS
 10
4.002680
 20
2.470600
  0
VERTEX
  8
0
  6
CONTINUOUS
 10
4.023360
 20
2.492600
  0
VERTEX
  8
0
  6
CONTINUOUS
 10
4.023360
 20
1.744160
  0
VERTEX
  8
0
  6
CONTINUOUS
 10
4.002680
 20
1.722160
  0
SEQEND
  8
0
  0
SOLID
  8
0
 62
    15
 10
4.023360
 20
1.744160
 11
4.023360
 21
2.492600
 12
4.047560
 22
1.762640
 13
4.047560
 23
2.510640
  0
POLYLINE
  8
0
  6
CONTINUOUS
 66
     1
 40
0.000000
 41
0.000000
  0
VERTEX
  8
0
  6
CONTINUOUS
 10
4.023360
 20
1.744160
  0
VERTEX
  8
0
  6
CONTINUOUS
 10
4.023360
 20
2.492600
  0
VERTEX
  8
0
  6
CONTINUOUS
 10
4.047560
 20
2.510640
  0
VERTEX
  8
0
  6
CONTINUOUS
 10
4.047560
 20
1.762640
  0
VERTEX
  8
0
  6
CONTINUOUS
 10
4.023360
 20
1.744160
  0
SEQEND
  8
0
  0
SOLID
  8
0
 62
    15
 10
4.047560
 20
1.762640
 11
4.047560
 21
2.510640
 12
4.074840
 22
1.775840
 13
4.074840
 23
2.524280
  0
POLYLINE
  8
0
  6
CONTINUOUS
 66
     1
 40
0.000000
 41
0.000000
  0
VERTEX
  8
0
  6
CONTINUOUS
 10
4.047560
 20
1.762640
  0
VERTEX
  8
0
  6
CONTINUOUS
 10
4.047560
 20
2.510640
  0
VERTEX
  8
0
  6
CONTINUOUS
 10
4.074840
 20
2.524280
  0
VERTEX
  8
0
  6
CONTINUOUS
 10
4.074840
 20
1.775840
  0
VERTEX
  8
0
  6
CONTINUOUS
 10
4.047560
 20
1.762640
  0
SEQEND
  8
0
  0
SOLID
  8
0
 62
    15
 10
4.074840
 20
1.775840
 11
4.074840
 21
2.524280
 12
4.104760
 22
1.784640
 13
4.104760
 23
2.532640
  0
POLYLINE
  8
0
  6
CONTINUOUS
 66
     1
 40
0.000000
 41
0.000000
  0
VERTEX
  8
0
  6
CONTINUOUS
 10
4.074840
 20
1.775840
  0
VERTEX
  8
0
  6
CONTINUOUS
 10
4.074840
 20
2.524280
  0
VERTEX
  8
0
  6
CONTINUOUS
 10
4.104760
 20
2.532640
  0
VERTEX
  8
0
  6
CONTINUOUS
 10
4.104760
 20
1.784640
  0
VERTEX
  8
0
  6
CONTINUOUS
 10
4.074840
 20
1.775840
  0
SEQEND
  8
0
  0
SOLID
  8
0
 62
    15
 10
4.104760
 20
1.784640
 11
4.104760
 21
2.532640
 12
4.136440
 22
1.787720
 13
4.136440
 23
2.535720
  0
POLYLINE
  8
0
  6
CONTINUOUS
 66
     1
 40
0.000000
 41
0.000000
  0
VERTEX
  8
0
  6
CONTINUOUS
 10
4.104760
 20
1.784640
  0
VERTEX
  8
0
  6
CONTINUOUS
 10
4.104760
 20
2.532640
  0
VERTEX
  8
0
  6
CONTINUOUS
 10
4.136440
 20
2.535720
  0
VERTEX
  8
0
  6
CONTINUOUS
 10
4.136440
 20
1.787720
  0
VERTEX
  8
0
  6
CONTINUOUS
 10
4.104760
 20
1.784640
  0
SEQEND
  8
0
  0
SOLID
  8
0
 62
    15
 10
4.136440
 20
1.787720
 11
4.136440
 21
2.535720
 12
4.168560
 22
1.784640
 13
4.168120
 23
2.532640
  0
POLYLINE
  8
0
  6
CONTINUOUS
 66
     1
 40
0.000000
 41
0.000000
  0
VERTEX
  8
0
  6
CONTINUOUS
 10
4.136440
 20
1.787720
  0
VERTEX
  8
0
  6
CONTINUOUS
 10
4.136440
 20
2.535720
  0
VERTEX
  8
0
  6
CONTINUOUS
 10
4.168120
 20
2.532640
  0
VERTEX
  8
0
  6
CONTINUOUS
 10
4.168560
 20
1.784640
  0
VERTEX
  8
0
  6
CONTINUOUS
 10
4.136440
 20
1.787720
  0
SEQEND
  8
0
  0
SOLID
  8
0
 62
    15
 10
4.168560
 20
1.784640
 11
4.168120
 21
2.532640
 12
4.198480
 22
1.775840
 13
4.198040
 23
2.524280
  0
POLYLINE
  8
0
  6
CONTINUOUS
 66
     1
 40
0.000000
 41
0.000000
  0
VERTEX
  8
0
  6
CONTINUOUS
 10
4.168560
 20
1.784640
  0
VERTEX
  8
0
  6
CONTINUOUS
 10
4.168120
 20
2.532640
  0
VERTEX
  8
0
  6
CONTINUOUS
 10
4.198040
 20
2.524280
  0
VERTEX
  8
0
  6
CONTINUOUS
 10
4.198480
 20
1.775840
  0
VERTEX
  8
0
  6
CONTINUOUS
 10
4.168560
 20
1.784640
  0
SEQEND
  8
0
  0
SOLID
  8
0
 62
    15
 10
4.198480
 20
1.775840
 11
4.198040
 21
2.524280
 12
4.225760
 22
1.762200
 13
4.225760
 23
2.510640
  0
POLYLINE
  8
0
  6
CONTINUOUS
 66
     1
 40
0.000000
 41
0.000000
  0
VERTEX
  8
0
  6
CONTINUOUS
 10
4.198480
 20
1.775840
  0
VERTEX
  8
0
  6
CONTINUOUS
 10
4.198040
 20
2.524280
  0
VERTEX
  8
0
  6
CONTINUOUS
 10
4.225760
 20
2.510640
  0
VERTEX
  8
0
  6
CONTINUOUS
 10
4.225760
 20
1.762200
  0
VERTEX
  8
0
  6
CONTINUOUS
 10
4.198480
 20
1.775840
  0
SEQEND
  8
0
  0
SOLID
  8
0
 62
    15
 10
4.225760
 20
1.762200
 11
4.225760
 21
2.510640
 12
4.249960
 22
1.744160
 13
4.249960
 23
2.492160
  0
POLYLINE
  8
0
  6
CONTINUOUS
 66
     1
 40
0.000000
 41
0.000000
  0
VERTEX
  8
0
  6
CONTINUOUS
 10
4.225760
 20
1.762200
  0
VERTEX
  8
0
  6
CONTINUOUS
 10
4.225760
 20
2.510640
  0
VERTEX
  8
0
  6
CONTINUOUS
 10
4.249960
 20
2.492160
  0
VERTEX
  8
0
  6
CONTINUOUS
 10
4.249960
 20
1.744160
  0
VERTEX
  8
0
  6
CONTINUOUS
 10
4.225760
 20
1.762200
  0
SEQEND
  8
0
  0
SOLID
  8
0
 62
    15
 10
4.249960
 20
1.744160
 11
4.249960
 21
2.492160
 12
4.270640
 22
1.722160
 13
4.270640
 23
2.470160
  0
POLYLINE
  8
0
  6
CONTINUOUS
 66
     1
 40
0.000000
 41
0.000000
  0
VERTEX
  8
0
  6
CONTINUOUS
 10
4.249960
 20
1.744160
  0
VERTEX
  8
0
  6
CONTINUOUS
 10
4.249960
 20
2.492160
  0
VERTEX
  8
0
  6
CONTINUOUS
 10
4.270640
 20
2.470160
  0
VERTEX
  8
0
  6
CONTINUOUS
 10
4.270640
 20
1.722160
  0
VERTEX
  8
0
  6
CONTINUOUS
 10
4.249960
 20
1.744160
  0
SEQEND
  8
0
  0
SOLID
  8
0
 62
    15
 10
4.270640
 20
1.722160
 11
4.270640
 21
2.470160
 12
4.286920
 22
1.696640
 13
4.286920
 23
2.444640
  0
POLYLINE
  8
0
  6
CONTINUOUS
 66
     1
 40
0.000000
 41
0.000000
  0
VERTEX
  8
0
  6
CONTINUOUS
 10
4.270640
 20
1.722160
  0
VERTEX
  8
0
  6
CONTINUOUS
 10
4.270640
 20
2.470160
  0
VERTEX
  8
0
  6
CONTINUOUS
 10
4.286920
 20
2.444640
  0
VERTEX
  8
0
  6
CONTINUOUS
 10
4.286920
 20
1.696640
  0
VERTEX
  8
0
  6
CONTINUOUS
 10
4.270640
 20
1.722160
  0
SEQEND
  8
0
  0
SOLID
  8
0
 62
    15
 10
4.286920
 20
1.696640
 11
4.286920
 21
2.444640
 12
4.298800
 22
1.668480
 13
4.298800
 23
2.416480
  0
POLYLINE
  8
0
  6
CONTINUOUS
 66
     1
 40
0.000000
 41
0.000000
  0
VERTEX
  8
0
  6
CONTINUOUS
 10
4.286920
 20
1.696640
  0
VERTEX
  8
0
  6
CONTINUOUS
 10
4.286920
 20
2.444640
  0
VERTEX
  8
0
  6
CONTINUOUS
 10
4.298800
 20
2.416480
  0
VERTEX
  8
0
  6
CONTINUOUS
 10
4.298800
 20
1.668480
  0
VERTEX
  8
0
  6
CONTINUOUS
 10
4.286920
 20
1.696640
  0
SEQEND
  8
0
  0
SOLID
  8
0
 62
    15
 10
4.298800
 20
1.668480
 11
4.298800
 21
2.416480
 12
4.305400
 22
1.637680
 13
4.305400
 23
2.385680
  0
POLYLINE
  8
0
  6
CONTINUOUS
 66
     1
 40
0.000000
 41
0.000000
  0
VERTEX
  8
0
  6
CONTINUOUS
 10
4.298800
 20
1.668480
  0
VERTEX
  8
0
  6
CONTINUOUS
 10
4.298800
 20
2.416480
  0
VERTEX
  8
0
  6
CONTINUOUS
 10
4.305400
 20
2.385680
  0
VERTEX
  8
0
  6
CONTINUOUS
 10
4.305400
 20
1.637680
  0
VERTEX
  8
0
  6
CONTINUOUS
 10
4.298800
 20
1.668480
  0
SEQEND
  8
0
  0
SOLID
  8
0
 62
    15
 10
4.305400
 20
1.637680
 11
4.305400
 21
2.385680
 12
4.413640
 22
1.638120
 13
4.413640
 23
2.386120
  0
POLYLINE
  8
0
  6
CONTINUOUS
 66
     1
 40
0.000000
 41
0.000000
  0
VERTEX
  8
0
  6
CONTINUOUS
 10
4.305400
 20
1.637680
  0
VERTEX
  8
0
  6
CONTINUOUS
 10
4.305400
 20
2.385680
  0
VERTEX
  8
0
  6
CONTINUOUS
 10
4.413640
 20
2.386120
  0
VERTEX
  8
0
  6
CONTINUOUS
 10
4.413640
 20
1.638120
  0
VERTEX
  8
0
  6
CONTINUOUS
 10
4.305400
 20
1.637680
  0
SEQEND
  8
0
  0
SOLID
  8
0
 62
    15
 10
4.413640
 20
1.638120
 11
4.413640
 21
2.386120
 12
4.420240
 22
1.668480
 13
4.420240
 23
2.416920
  0
POLYLINE
  8
0
  6
CONTINUOUS
 66
     1
 40
0.000000
 41
0.000000
  0
VERTEX
  8
0
  6
CONTINUOUS
 10
4.413640
 20
1.638120
  0
VERTEX
  8
0
  6
CONTINUOUS
 10
4.413640
 20
2.386120
  0
VERTEX
  8
0
  6
CONTINUOUS
 10
4.420240
 20
2.416920
  0
VERTEX
  8
0
  6
CONTINUOUS
 10
4.420240
 20
1.668480
  0
VERTEX
  8
0
  6
CONTINUOUS
 10
4.413640
 20
1.638120
  0
SEQEND
  8
0
  0
SOLID
  8
0
 62
    15
 10
4.420240
 20
1.668480
 11
4.420240
 21
2.416920
 12
4.432120
 22
1.697080
 13
4.432120
 23
2.445080
  0
POLYLINE
  8
0
  6
CONTINUOUS
 66
     1
 40
0.000000
 41
0.000000
  0
VERTEX
  8
0
  6
CONTINUOUS
 10
4.420240
 20
1.668480
  0
VERTEX
  8
0
  6
CONTINUOUS
 10
4.420240
 20
2.416920
  0
VERTEX
  8
0
  6
CONTINUOUS
 10
4.432120
 20
2.445080
  0
VERTEX
  8
0
  6
CONTINUOUS
 10
4.432120
 20
1.697080
  0
VERTEX
  8
0
  6
CONTINUOUS
 10
4.420240
 20
1.668480
  0
SEQEND
  8
0
  0
SOLID
  8
0
 62
    15
 10
4.432120
 20
1.697080
 11
4.432120
 21
2.445080
 12
4.448840
 22
1.722160
 13
4.448840
 23
2.470600
  0
POLYLINE
  8
0
  6
CONTINUOUS
 66
     1
 40
0.000000
 41
0.000000
  0
VERTEX
  8
0
  6
CONTINUOUS
 10
4.432120
 20
1.697080
  0
VERTEX
  8
0
  6
CONTINUOUS
 10
4.432120
 20
2.445080
  0
VERTEX
  8
0
  6
CONTINUOUS
 10
4.448840
 20
2.470600
  0
VERTEX
  8
0
  6
CONTINUOUS
 10
4.448840
 20
1.722160
  0
VERTEX
  8
0
  6
CONTINUOUS
 10
4.432120
 20
1.697080
  0
SEQEND
  8
0
  0
SOLID
  8
0
 62
    15
 10
4.448840
 20
1.722160
 11
4.448840
 21
2.470600
 12
4.469520
 22
1.744160
 13
4.469520
 23
2.492600
  0
POLYLINE
  8
0
  6
CONTINUOUS
 66
     1
 40
0.000000
 41
0.000000
  0
VERTEX
  8
0
  6
CONTINUOUS
 10
4.448840
 20
1.722160
  0
VERTEX
  8
0
  6
CONTINUOUS
 10
4.448840
 20
2.470600
  0
VERTEX
  8
0
  6
CONTINUOUS
 10
4.469520
 20
2.492600
  0
VERTEX
  8
0
  6
CONTINUOUS
 10
4.469520
 20
1.744160
  0
VERTEX
  8
0
  6
CONTINUOUS
 10
4.448840
 20
1.722160
  0
SEQEND
  8
0
  0
SOLID
  8
0
 62
    15
 10
4.469520
 20
1.744160
 11
4.469520
 21
2.492600
 12
4.493720
 22
1.762640
 13
4.493720
 23
2.510640
  0
POLYLINE
  8
0
  6
CONTINUOUS
 66
     1
 40
0.000000
 41
0.000000
  0
VERTEX
  8
0
  6
CONTINUOUS
 10
4.469520
 20
1.744160
  0
VERTEX
  8
0
  6
CONTINUOUS
 10
4.469520
 20
2.492600
  0
VERTEX
  8
0
  6
CONTINUOUS
 10
4.493720
 20
2.510640
  0
VERTEX
  8
0
  6
CONTINUOUS
 10
4.493720
 20
1.762640
  0
VERTEX
  8
0
  6
CONTINUOUS
 10
4.469520
 20
1.744160
  0
SEQEND
  8
0
  0
SOLID
  8
0
 62
    15
 10
4.493720
 20
1.762640
 11
4.493720
 21
2.510640
 12
4.521000
 22
1.775840
 13
4.521000
 23
2.524280
  0
POLYLINE
  8
0
  6
CONTINUOUS
 66
     1
 40
0.000000
 41
0.000000
  0
VERTEX
  8
0
  6
CONTINUOUS
 10
4.493720
 20
1.762640
  0
VERTEX
  8
0
  6
CONTINUOUS
 10
4.493720
 20
2.510640
  0
VERTEX
  8
0
  6
CONTINUOUS
 10
4.521000
 20
2.524280
  0
VERTEX
  8
0
  6
CONTINUOUS
 10
4.521000
 20
1.775840
  0
VERTEX
  8
0
  6
CONTINUOUS
 10
4.493720
 20
1.762640
  0
SEQEND
  8
0
  0
SOLID
  8
0
 62
    15
 10
4.521000
 20
1.775840
 11
4.521000
 21
2.524280
 12
4.550920
 22
1.784640
 13
4.550920
 23
2.532640
  0
POLYLINE
  8
0
  6
CONTINUOUS
 66
     1
 40
0.000000
 41
0.000000
  0
VERTEX
  8
0
  6
CONTINUOUS
 10
4.521000
 20
1.775840
  0
VERTEX
  8
0
  6
CONTINUOUS
 10
4.521000
 20
2.524280
  0
VERTEX
  8
0
  6
CONTINUOUS
 10
4.550920
 20
2.532640
  0
VERTEX
  8
0
  6
CONTINUOUS
 10
4.550920
 20
1.784640
  0
VERTEX
  8
0
  6
CONTINUOUS
 10
4.521000
 20
1.775840
  0
SEQEND
  8
0
  0
SOLID
  8
0
 62
    15
 10
4.550920
 20
1.784640
 11
4.550920
 21
2.532640
 12
4.582600
 22
1.787720
 13
4.582600
 23
2.535720
  0
POLYLINE
  8
0
  6
CONTINUOUS
 66
     1
 40
0.000000
 41
0.000000
  0
VERTEX
  8
0
  6
CONTINUOUS
 10
4.550920
 20
1.784640
  0
VERTEX
  8
0
  6
CONTINUOUS
 10
4.550920
 20
2.532640
  0
VERTEX
  8
0
  6
CONTINUOUS
 10
4.582600
 20
2.535720
  0
VERTEX
  8
0
  6
CONTINUOUS
 10
4.582600
 20
1.787720
  0
VERTEX
  8
0
  6
CONTINUOUS
 10
4.550920
 20
1.784640
  0
SEQEND
  8
0
  0
SOLID
  8
0
 62
    15
 10
4.582600
 20
1.787720
 11
4.582600
 21
2.535720
 12
4.614720
 22
1.784640
 13
4.614720
 23
2.532640
  0
POLYLINE
  8
0
  6
CONTINUOUS
 66
     1
 40
0.000000
 41
0.000000
  0
VERTEX
  8
0
  6
CONTINUOUS
 10
4.582600
 20
1.787720
  0
VERTEX
  8
0
  6
CONTINUOUS
 10
4.582600
 20
2.535720
  0
VERTEX
  8
0
  6
CONTINUOUS
 10
4.614720
 20
2.532640
  0
VERTEX
  8
0
  6
CONTINUOUS
 10
4.614720
 20
1.784640
  0
VERTEX
  8
0
  6
CONTINUOUS
 10
4.582600
 20
1.787720
  0
SEQEND
  8
0
  0
SOLID
  8
0
 62
    15
 10
4.614720
 20
1.784640
 11
4.614720
 21
2.532640
 12
4.644640
 22
1.775840
 13
4.644200
 23
2.524280
  0
POLYLINE
  8
0
  6
CONTINUOUS
 66
     1
 40
0.000000
 41
0.000000
  0
VERTEX
  8
0
  6
CONTINUOUS
 10
4.614720
 20
1.784640
  0
VERTEX
  8
0
  6
CONTINUOUS
 10
4.614720
 20
2.532640
  0
VERTEX
  8
0
  6
CONTINUOUS
 10
4.644200
 20
2.524280
  0
VERTEX
  8
0
  6
CONTINUOUS
 10
4.644640
 20
1.775840
  0
VERTEX
  8
0
  6
CONTINUOUS
 10
4.614720
 20
1.784640
  0
SEQEND
  8
0
  0
SOLID
  8
0
 62
    15
 10
4.644640
 20
1.775840
 11
4.644200
 21
2.524280
 12
4.671920
 22
1.762200
 13
4.671920
 23
2.510640
  0
POLYLINE
  8
0
  6
CONTINUOUS
 66
     1
 40
0.000000
 41
0.000000
  0
VERTEX
  8
0
  6
CONTINUOUS
 10
4.644640
 20
1.775840
  0
VERTEX
  8
0
  6
CONTINUOUS
 10
4.644200
 20
2.524280
  0
VERTEX
  8
0
  6
CONTINUOUS
 10
4.671920
 20
2.510640
  0
VERTEX
  8
0
  6
CONTINUOUS
 10
4.671920
 20
1.762200
  0
VERTEX
  8
0
  6
CONTINUOUS
 10
4.644640
 20
1.775840
  0
SEQEND
  8
0
  0
SOLID
  8
0
 62
    15
 10
4.671920
 20
1.762200
 11
4.671920
 21
2.510640
 12
4.696120
 22
1.744160
 13
4.696120
 23
2.492160
  0
POLYLINE
  8
0
  6
CONTINUOUS
 66
     1
 40
0.000000
 41
0.000000
  0
VERTEX
  8
0
  6
CONTINUOUS
 10
4.671920
 20
1.762200
  0
VERTEX
  8
0
  6
CONTINUOUS
 10
4.671920
 20
2.510640
  0
VERTEX
  8
0
  6
CONTINUOUS
 10
4.696120
 20
2.492160
  0
VERTEX
  8
0
  6
CONTINUOUS
 10
4.696120
 20
1.744160
  0
VERTEX
  8
0
  6
CONTINUOUS
 10
4.671920
 20
1.762200
  0
SEQEND
  8
0
  0
SOLID
  8
0
 62
    15
 10
4.696120
 20
1.744160
 11
4.696120
 21
2.492160
 12
4.716800
 22
1.722160
 13
4.716800
 23
2.470160
  0
POLYLINE
  8
0
  6
CONTINUOUS
 66
     1
 40
0.000000
 41
0.000000
  0
VERTEX
  8
0
  6
CONTINUOUS
 10
4.696120
 20
1.744160
  0
VERTEX
  8
0
  6
CONTINUOUS
 10
4.696120
 20
2.492160
  0
VERTEX
  8
0
  6
CONTINUOUS
 10
4.716800
 20
2.470160
  0
VERTEX
  8
0
  6
CONTINUOUS
 10
4.716800
 20
1.722160
  0
VERTEX
  8
0
  6
CONTINUOUS
 10
4.696120
 20
1.744160
  0
SEQEND
  8
0
  0
SOLID
  8
0
 62
    15
 10
4.716800
 20
1.722160
 11
4.716800
 21
2.470160
 12
4.733520
 22
1.696640
 13
4.733080
 23
2.444640
  0
POLYLINE
  8
0
  6
CONTINUOUS
 66
     1
 40
0.000000
 41
0.000000
  0
VERTEX
  8
0
  6
CONTINUOUS
 10
4.716800
 20
1.722160
  0
VERTEX
  8
0
  6
CONTINUOUS
 10
4.716800
 20
2.470160
  0
VERTEX
  8
0
  6
CONTINUOUS
 10
4.733080
 20
2.444640
  0
VERTEX
  8
0
  6
CONTINUOUS
 10
4.733520
 20
1.696640
  0
VERTEX
  8
0
  6
CONTINUOUS
 10
4.716800
 20
1.722160
  0
SEQEND
  8
0
  0
SOLID
  8
0
 62
    15
 10
4.733520
 20
1.696640
 11
4.733080
 21
2.444640
 12
4.745400
 22
1.668480
 13
4.744960
 23
2.416480
  0
POLYLINE
  8
0
  6
CONTINUOUS
 66
     1
 40
0.000000
 41
0.000000
  0
VERTEX
  8
0
  6
CONTINUOUS
 10
4.733520
 20
1.696640
  0
VERTEX
  8
0
  6
CONTINUOUS
 10
4.733080
 20
2.444640
  0
VERTEX
  8
0
  6
CONTINUOUS
 10
4.744960
 20
2.416480
  0
VERTEX
  8
0
  6
CONTINUOUS
 10
4.745400
 20
1.668480
  0
VERTEX
  8
0
  6
CONTINUOUS
 10
4.733520
 20
1.696640
  0
SEQEND
  8
0
  0
SOLID
  8
0
 62
    15
 10
4.745400
 20
1.668480
 11
4.744960
 21
2.416480
 12
4.751560
 22
1.637680
 13
4.751560
 23
2.385680
  0
POLYLINE
  8
0
  6
CONTINUOUS
 66
     1
 40
0.000000
 41
0.000000
  0
VERTEX
  8
0
  6
CONTINUOUS
 10
4.745400
 20
1.668480
  0
VERTEX
  8
0
  6
CONTINUOUS
 10
4.744960
 20
2.416480
  0
VERTEX
  8
0
  6
CONTINUOUS
 10
4.751560
 20
2.385680
  0
VERTEX
  8
0
  6
CONTINUOUS
 10
4.751560
 20
1.637680
  0
VERTEX
  8
0
  6
CONTINUOUS
 10
4.745400
 20
1.668480
  0
SEQEND
  8
0
  0
SOLID
  8
0
 62
    15
 10
4.751560
 20
1.637680
 11
4.751560
 21
2.385680
 12
4.861560
 22
1.638120
 13
4.861560
 23
2.386120
  0
POLYLINE
  8
0
  6
CONTINUOUS
 66
     1
 40
0.000000
 41
0.000000
  0
VERTEX
  8
0
  6
CONTINUOUS
 10
4.751560
 20
1.637680
  0
VERTEX
  8
0
  6
CONTINUOUS
 10
4.751560
 20
2.385680
  0
VERTEX
  8
0
  6
CONTINUOUS
 10
4.861560
 20
2.386120
  0
VERTEX
  8
0
  6
CONTINUOUS
 10
4.861560
 20
1.638120
  0
VERTEX
  8
0
  6
CONTINUOUS
 10
4.751560
 20
1.637680
  0
SEQEND
  8
0
  0
SOLID
  8
0
 62
    15
 10
4.861560
 20
1.638120
 11
4.861560
 21
2.386120
 12
4.868160
 22
1.668480
 13
4.868160
 23
2.416920
  0
POLYLINE
  8
0
  6
CONTINUOUS
 66
     1
 40
0.000000
 41
0.000000
  0
VERTEX
  8
0
  6
CONTINUOUS
 10
4.861560
 20
1.638120
  0
VERTEX
  8
0
  6
CONTINUOUS
 10
4.861560
 20
2.386120
  0
VERTEX
  8
0
  6
CONTINUOUS
 10
4.868160
 20
2.416920
  0
VERTEX
  8
0
  6
CONTINUOUS
 10
4.868160
 20
1.668480
  0
VERTEX
  8
0
  6
CONTINUOUS
 10
4.861560
 20
1.638120
  0
SEQEND
  8
0
  0
SOLID
  8
0
 62
    15
 10
4.868160
 20
1.668480
 11
4.868160
 21
2.416920
 12
4.880040
 22
1.697080
 13
4.880040
 23
2.445080
  0
POLYLINE
  8
0
  6
CONTINUOUS
 66
     1
 40
0.000000
 41
0.000000
  0
VERTEX
  8
0
  6
CONTINUOUS
 10
4.868160
 20
1.668480
  0
VERTEX
  8
0
  6
CONTINUOUS
 10
4.868160
 20
2.416920
  0
VERTEX
  8
0
  6
CONTINUOUS
 10
4.880040
 20
2.445080
  0
VERTEX
  8
0
  6
CONTINUOUS
 10
4.880040
 20
1.697080
  0
VERTEX
  8
0
  6
CONTINUOUS
 10
4.868160
 20
1.668480
  0
SEQEND
  8
0
  0
SOLID
  8
0
 62
    15
 10
4.880040
 20
1.697080
 11
4.880040
 21
2.445080
 12
4.896320
 22
1.722600
 13
4.896320
 23
2.470600
  0
POLYLINE
  8
0
  6
CONTINUOUS
 66
     1
 40
0.000000
 41
0.000000
  0
VERTEX
  8
0
  6
CONTINUOUS
 10
4.880040
 20
1.697080
  0
VERTEX
  8
0
  6
CONTINUOUS
 10
4.880040
 20
2.445080
  0
VERTEX
  8
0
  6
CONTINUOUS
 10
4.896320
 20
2.470600
  0
VERTEX
  8
0
  6
CONTINUOUS
 10
4.896320
 20
1.722600
  0
VERTEX
  8
0
  6
CONTINUOUS
 10
4.880040
 20
1.697080
  0
SEQEND
  8
0
  0
SOLID
  8
0
 62
    15
 10
4.896320
 20
1.722600
 11
4.896320
 21
2.470600
 12
4.917000
 22
1.744600
 13
4.917000
 23
2.492600
  0
POLYLINE
  8
0
  6
CONTINUOUS
 66
     1
 40
0.000000
 41
0.000000
  0
VERTEX
  8
0
  6
CONTINUOUS
 10
4.896320
 20
1.722600
  0
VERTEX
  8
0
  6
CONTINUOUS
 10
4.896320
 20
2.470600
  0
VERTEX
  8
0
  6
CONTINUOUS
 10
4.917000
 20
2.492600
  0
VERTEX
  8
0
  6
CONTINUOUS
 10
4.917000
 20
1.744600
  0
VERTEX
  8
0
  6
CONTINUOUS
 10
4.896320
 20
1.722600
  0
SEQEND
  8
0
  0
SOLID
  8
0
 62
    15
 10
4.917000
 20
1.744600
 11
4.917000
 21
2.492600
 12
4.941640
 22
1.762640
 13
4.941200
 23
2.510640
  0
POLYLINE
  8
0
  6
CONTINUOUS
 66
     1
 40
0.000000
 41
0.000000
  0
VERTEX
  8
0
  6
CONTINUOUS
 10
4.917000
 20
1.744600
  0
VERTEX
  8
0
  6
CONTINUOUS
 10
4.917000
 20
2.492600
  0
VERTEX
  8
0
  6
CONTINUOUS
 10
4.941200
 20
2.510640
  0
VERTEX
  8
0
  6
CONTINUOUS
 10
4.941640
 20
1.762640
  0
VERTEX
  8
0
  6
CONTINUOUS
 10
4.917000
 20
1.744600
  0
SEQEND
  8
0
  0
SOLID
  8
0
 62
    15
 10
4.941640
 20
1.762640
 11
4.941200
 21
2.510640
 12
4.968920
 22
1.775840
 13
4.968920
 23
2.524280
  0
POLYLINE
  8
0
  6
CONTINUOUS
 66
     1
 40
0.000000
 41
0.000000
  0
VERTEX
  8
0
  6
CONTINUOUS
 10
4.941640
 20
1.762640
  0
VERTEX
  8
0
  6
CONTINUOUS
 10
4.941200
 20
2.510640
  0
VERTEX
  8
0
  6
CONTINUOUS
 10
4.968920
 20
2.524280
  0
VERTEX
  8
0
  6
CONTINUOUS
 10
4.968920
 20
1.775840
  0
VERTEX
  8
0
  6
CONTINUOUS
 10
4.941640
 20
1.762640
  0
SEQEND
  8
0
  0
SOLID
  8
0
 62
    15
 10
4.968920
 20
1.775840
 11
4.968920
 21
2.524280
 12
4.998840
 22
1.784640
 13
4.998400
 23
2.532640
  0
POLYLINE
  8
0
  6
CONTINUOUS
 66
     1
 40
0.000000
 41
0.000000
  0
VERTEX
  8
0
  6
CONTINUOUS
 10
4.968920
 20
1.775840
  0
VERTEX
  8
0
  6
CONTINUOUS
 10
4.968920
 20
2.524280
  0
VERTEX
  8
0
  6
CONTINUOUS
 10
4.998400
 20
2.532640
  0
VERTEX
  8
0
  6
CONTINUOUS
 10
4.998840
 20
1.784640
  0
VERTEX
  8
0
  6
CONTINUOUS
 10
4.968920
 20
1.775840
  0
SEQEND
  8
0
  0
SOLID
  8
0
 62
    15
 10
4.998840
 20
1.784640
 11
4.998400
 21
2.532640
 12
5.030520
 22
1.787720
 13
5.030520
 23
2.535720
  0
POLYLINE
  8
0
  6
CONTINUOUS
 66
     1
 40
0.000000
 41
0.000000
  0
VERTEX
  8
0
  6
CONTINUOUS
 10
4.998840
 20
1.784640
  0
VERTEX
  8
0
  6
CONTINUOUS
 10
4.998400
 20
2.532640
  0
VERTEX
  8
0
  6
CONTINUOUS
 10
5.030520
 20
2.535720
  0
VERTEX
  8
0
  6
CONTINUOUS
 10
5.030520
 20
1.787720
  0
VERTEX
  8
0
  6
CONTINUOUS
 10
4.998840
 20
1.784640
  0
SEQEND
  8
0
  0
SOLID
  8
0
 62
    15
 10
5.030520
 20
1.787720
 11
5.030520
 21
2.535720
 12
5.062200
 22
1.784640
 13
5.062200
 23
2.532640
  0
POLYLINE
  8
0
  6
CONTINUOUS
 66
     1
 40
0.000000
 41
0.000000
  0
VERTEX
  8
0
  6
CONTINUOUS
 10
5.030520
 20
1.787720
  0
VERTEX
  8
0
  6
CONTINUOUS
 10
5.030520
 20
2.535720
  0
VERTEX
  8
0
  6
CONTINUOUS
 10
5.062200
 20
2.532640
  0
VERTEX
  8
0
  6
CONTINUOUS
 10
5.062200
 20
1.784640
  0
VERTEX
  8
0
  6
CONTINUOUS
 10
5.030520
 20
1.787720
  0
SEQEND
  8
0
  0
SOLID
  8
0
 62
    15
 10
5.062200
 20
1.784640
 11
5.062200
 21
2.532640
 12
5.092120
 22
1.775840
 13
5.092120
 23
2.524280
  0
POLYLINE
  8
0
  6
CONTINUOUS
 66
     1
 40
0.000000
 41
0.000000
  0
VERTEX
  8
0
  6
CONTINUOUS
 10
5.062200
 20
1.784640
  0
VERTEX
  8
0
  6
CONTINUOUS
 10
5.062200
 20
2.532640
  0
VERTEX
  8
0
  6
CONTINUOUS
 10
5.092120
 20
2.524280
  0
VERTEX
  8
0
  6
CONTINUOUS
 10
5.092120
 20
1.775840
  0
VERTEX
  8
0
  6
CONTINUOUS
 10
5.062200
 20
1.784640
  0
SEQEND
  8
0
  0
SOLID
  8
0
 62
    15
 10
5.092120
 20
1.775840
 11
5.092120
 21
2.524280
 12
5.119400
 22
1.762640
 13
5.119400
 23
2.510640
  0
POLYLINE
  8
0
  6
CONTINUOUS
 66
     1
 40
0.000000
 41
0.000000
  0
VERTEX
  8
0
  6
CONTINUOUS
 10
5.092120
 20
1.775840
  0
VERTEX
  8
0
  6
CONTINUOUS
 10
5.092120
 20
2.524280
  0
VERTEX
  8
0
  6
CONTINUOUS
 10
5.119400
 20
2.510640
  0
VERTEX
  8
0
  6
CONTINUOUS
 10
5.119400
 20
1.762640
  0
VERTEX
  8
0
  6
CONTINUOUS
 10
5.092120
 20
1.775840
  0
SEQEND
  8
0
  0
SOLID
  8
0
 62
    15
 10
5.119400
 20
1.762640
 11
5.119400
 21
2.510640
 12
5.144040
 22
1.744160
 13
5.143600
 23
2.492600
  0
POLYLINE
  8
0
  6
CONTINUOUS
 66
     1
 40
0.000000
 41
0.000000
  0
VERTEX
  8
0
  6
CONTINUOUS
 10
5.119400
 20
1.762640
  0
VERTEX
  8
0
  6
CONTINUOUS
 10
5.119400
 20
2.510640
  0
VERTEX
  8
0
  6
CONTINUOUS
 10
5.143600
 20
2.492600
  0
VERTEX
  8
0
  6
CONTINUOUS
 10
5.144040
 20
1.744160
  0
VERTEX
  8
0
  6
CONTINUOUS
 10
5.119400
 20
1.762640
  0
SEQEND
  8
0
  0
SOLID
  8
0
 62
    15
 10
5.144040
 20
1.744160
 11
5.143600
 21
2.492600
 12
5.164720
 22
1.722160
 13
5.164280
 23
2.470160
  0
POLYLINE
  8
0
  6
CONTINUOUS
 66
     1
 40
0.000000
 41
0.000000
  0
VERTEX
  8
0
  6
CONTINUOUS
 10
5.144040
 20
1.744160
  0
VERTEX
  8
0
  6
CONTINUOUS
 10
5.143600
 20
2.492600
  0
VERTEX
  8
0
  6
CONTINUOUS
 10
5.164280
 20
2.470160
  0
VERTEX
  8
0
  6
CONTINUOUS
 10
5.164720
 20
1.722160
  0
VERTEX
  8
0
  6
CONTINUOUS
 10
5.144040
 20
1.744160
  0
SEQEND
  8
0
  0
SOLID
  8
0
 62
    15
 10
5.164720
 20
1.722160
 11
5.164280
 21
2.470160
 12
5.181000
 22
1.696640
 13
5.181000
 23
2.444640
  0
POLYLINE
  8
0
  6
CONTINUOUS
 66
     1
 40
0.000000
 41
0.000000
  0
VERTEX
  8
0
  6
CONTINUOUS
 10
5.164720
 20
1.722160
  0
VERTEX
  8
0
  6
CONTINUOUS
 10
5.164280
 20
2.470160
  0
VERTEX
  8
0
  6
CONTINUOUS
 10
5.181000
 20
2.444640
  0
VERTEX
  8
0
  6
CONTINUOUS
 10
5.181000
 20
1.696640
  0
VERTEX
  8
0
  6
CONTINUOUS
 10
5.164720
 20
1.722160
  0
SEQEND
  8
0
  0
SOLID
  8
0
 62
    15
 10
5.199480
 20
1.637680
 11
5.199480
 21
2.385680
 12
5.311240
 22
1.638120
 13
5.311240
 23
2.386120
  0
POLYLINE
  8
0
  6
CONTINUOUS
 66
     1
 40
0.000000
 41
0.000000
  0
VERTEX
  8
0
  6
CONTINUOUS
 10
5.199480
 20
1.637680
  0
VERTEX
  8
0
  6
CONTINUOUS
 10
5.199480
 20
2.385680
  0
VERTEX
  8
0
  6
CONTINUOUS
 10
5.311240
 20
2.386120
  0
VERTEX
  8
0
  6
CONTINUOUS
 10
5.311240
 20
1.638120
  0
VERTEX
  8
0
  6
CONTINUOUS
 10
5.199480
 20
1.637680
  0
SEQEND
  8
0
  0
SOLID
  8
0
 62
    15
 10
5.192880
 20
1.668480
 11
5.192880
 21
2.416480
 12
5.199480
 22
1.637680
 13
5.199480
 23
2.385680
  0
POLYLINE
  8
0
  6
CONTINUOUS
 66
     1
 40
0.000000
 41
0.000000
  0
VERTEX
  8
0
  6
CONTINUOUS
 10
5.192880
 20
1.668480
  0
VERTEX
  8
0
  6
CONTINUOUS
 10
5.192880
 20
2.416480
  0
VERTEX
  8
0
  6
CONTINUOUS
 10
5.199480
 20
2.385680
  0
VERTEX
  8
0
  6
CONTINUOUS
 10
5.199480
 20
1.637680
  0
VERTEX
  8
0
  6
CONTINUOUS
 10
5.192880
 20
1.668480
  0
SEQEND
  8
0
  0
SOLID
  8
0
 62
    15
 10
5.181000
 20
1.696640
 11
5.181000
 21
2.444640
 12
5.192880
 22
1.668480
 13
5.192880
 23
2.416480
  0
POLYLINE
  8
0
  6
CONTINUOUS
 66
     1
 40
0.000000
 41
0.000000
  0
VERTEX
  8
0
  6
CONTINUOUS
 10
5.181000
 20
1.696640
  0
VERTEX
  8
0
  6
CONTINUOUS
 10
5.181000
 20
2.444640
  0
VERTEX
  8
0
  6
CONTINUOUS
 10
5.192880
 20
2.416480
  0
VERTEX
  8
0
  6
CONTINUOUS
 10
5.192880
 20
1.668480
  0
VERTEX
  8
0
  6
CONTINUOUS
 10
5.181000
 20
1.696640
  0
SEQEND
  8
0
  0
SOLID
  8
0
 62
    15
 10
5.311240
 20
1.638120
 11
5.311240
 21
2.386120
 12
5.333680
 22
1.835680
 13
5.333680
 23
2.583680
  0
POLYLINE
  8
0
  6
CONTINUOUS
 66
     1
 40
0.000000
 41
0.000000
  0
VERTEX
  8
0
  6
CONTINUOUS
 10
5.311240
 20
1.638120
  0
VERTEX
  8
0
  6
CONTINUOUS
 10
5.311240
 20
2.386120
  0
VERTEX
  8
0
  6
CONTINUOUS
 10
5.333680
 20
2.583680
  0
VERTEX
  8
0
  6
CONTINUOUS
 10
5.333680
 20
1.835680
  0
VERTEX
  8
0
  6
CONTINUOUS
 10
5.311240
 20
1.638120
  0
SEQEND
  8
0
  0
SOLID
  8
0
 62
    15
 10
3.967480
 20
1.638120
 11
3.967480
 21
2.386120
 12
3.974080
 22
1.668480
 13
3.974080
 23
2.416920
  0
POLYLINE
  8
0
  6
CONTINUOUS
 66
     1
 40
0.000000
 41
0.000000
  0
VERTEX
  8
0
  6
CONTINUOUS
 10
3.967480
 20
1.638120
  0
VERTEX
  8
0
  6
CONTINUOUS
 10
3.967480
 20
2.386120
  0
VERTEX
  8
0
  6
CONTINUOUS
 10
3.974080
 20
2.416920
  0
VERTEX
  8
0
  6
CONTINUOUS
 10
3.974080
 20
1.668480
  0
VERTEX
  8
0
  6
CONTINUOUS
 10
3.967480
 20
1.638120
  0
SEQEND
  8
0
  0
SOLID
  8
0
 62
    15
 10
6.529600
 20
1.835680
 11
6.529600
 21
2.583680
 12
7.189600
 22
1.470480
 13
7.189600
 23
2.218480
  0
POLYLINE
  8
0
  6
CONTINUOUS
 66
     1
 40
0.000000
 41
0.000000
  0
VERTEX
  8
0
  6
CONTINUOUS
 10
6.529600
 20
1.835680
  0
VERTEX
  8
0
  6
CONTINUOUS
 10
6.529600
 20
2.583680
  0
VERTEX
  8
0
  6
CONTINUOUS
 10
7.189600
 20
2.218480
  0
VERTEX
  8
0
  6
CONTINUOUS
 10
7.189600
 20
1.470480
  0
VERTEX
  8
0
  6
CONTINUOUS
 10
6.529600
 20
1.835680
  0
SEQEND
  8
0
  0
SOLID
  8
0
 62
    15
 10
1.105720
 20
1.213520
 11
1.105720
 21
1.961520
 12
1.105720
 22
1.451560
 13
1.105720
 23
2.199560
  0
POLYLINE
  8
0
  6
CONTINUOUS
 66
     1
 40
0.000000
 41
0.000000
  0
VERTEX
  8
0
  6
CONTINUOUS
 10
1.105720
 20
1.213520
  0
VERTEX
  8
0
  6
CONTINUOUS
 10
1.105720
 20
1.961520
  0
VERTEX
  8
0
  6
CONTINUOUS
 10
1.105720
 20
2.199560
  0
VERTEX
  8
0
  6
CONTINUOUS
 10
1.105720
 20
1.451560
  0
VERTEX
  8
0
  6
CONTINUOUS
 10
1.105720
 20
1.213520
  0
SEQEND
  8
0
  0
SOLID
  8
0
 62
    15
 10
1.105720
 20
1.451560
 11
1.105720
 21
2.199560
 12
1.161160
 22
1.455960
 13
1.161160
 23
2.203960
  0
POLYLINE
  8
0
  6
CONTINUOUS
 66
     1
 40
0.000000
 41
0.000000
  0
VERTEX
  8
0
  6
CONTINUOUS
 10
1.105720
 20
1.451560
  0
VERTEX
  8
0
  6
CONTINUOUS
 10
1.105720
 20
2.199560
  0
VERTEX
  8
0
  6
CONTINUOUS
 10
1.161160
 20
2.203960
  0
VERTEX
  8
0
  6
CONTINUOUS
 10
1.161160
 20
1.455960
  0
VERTEX
  8
0
  6
CONTINUOUS
 10
1.105720
 20
1.451560
  0
SEQEND
  8
0
  0
SOLID
  8
0
 62
    15
 10
1.161160
 20
1.455960
 11
1.161160
 21
2.203960
 12
1.211760
 22
1.464760
 13
1.211760
 23
2.212760
  0
POLYLINE
  8
0
  6
CONTINUOUS
 66
     1
 40
0.000000
 41
0.000000
  0
VERTEX
  8
0
  6
CONTINUOUS
 10
1.161160
 20
1.455960
  0
VERTEX
  8
0
  6
CONTINUOUS
 10
1.161160
 20
2.203960
  0
VERTEX
  8
0
  6
CONTINUOUS
 10
1.211760
 20
2.212760
  0
VERTEX
  8
0
  6
CONTINUOUS
 10
1.211760
 20
1.464760
  0
VERTEX
  8
0
  6
CONTINUOUS
 10
1.161160
 20
1.455960
  0
SEQEND
  8
0
  0
SOLID
  8
0
 62
    15
 10
1.211760
 20
1.464760
 11
1.211760
 21
2.212760
 12
1.257520
 22
1.477960
 13
1.257520
 23
2.225960
  0
POLYLINE
  8
0
  6
CONTINUOUS
 66
     1
 40
0.000000
 41
0.000000
  0
VERTEX
  8
0
  6
CONTINUOUS
 10
1.211760
 20
1.464760
  0
VERTEX
  8
0
  6
CONTINUOUS
 10
1.211760
 20
2.212760
  0
VERTEX
  8
0
  6
CONTINUOUS
 10
1.257520
 20
2.225960
  0
VERTEX
  8
0
  6
CONTINUOUS
 10
1.257520
 20
1.477960
  0
VERTEX
  8
0
  6
CONTINUOUS
 10
1.211760
 20
1.464760
  0
SEQEND
  8
0
  0
SOLID
  8
0
 62
    15
 10
1.257520
 20
1.477960
 11
1.257520
 21
2.225960
 12
1.299320
 22
1.494680
 13
1.298880
 23
2.243120
  0
POLYLINE
  8
0
  6
CONTINUOUS
 66
     1
 40
0.000000
 41
0.000000
  0
VERTEX
  8
0
  6
CONTINUOUS
 10
1.257520
 20
1.477960
  0
VERTEX
  8
0
  6
CONTINUOUS
 10
1.257520
 20
2.225960
  0
VERTEX
  8
0
  6
CONTINUOUS
 10
1.298880
 20
2.243120
  0
VERTEX
  8
0
  6
CONTINUOUS
 10
1.299320
 20
1.494680
  0
VERTEX
  8
0
  6
CONTINUOUS
 10
1.257520
 20
1.477960
  0
SEQEND
  8
0
  0
SOLID
  8
0
 62
    15
 10
1.299320
 20
1.494680
 11
1.298880
 21
2.243120
 12
1.336280
 22
1.515360
 13
1.336280
 23
2.263360
  0
POLYLINE
  8
0
  6
CONTINUOUS
 66
     1
 40
0.000000
 41
0.000000
  0
VERTEX
  8
0
  6
CONTINUOUS
 10
1.299320
 20
1.494680
  0
VERTEX
  8
0
  6
CONTINUOUS
 10
1.298880
 20
2.243120
  0
VERTEX
  8
0
  6
CONTINUOUS
 10
1.336280
 20
2.263360
  0
VERTEX
  8
0
  6
CONTINUOUS
 10
1.336280
 20
1.515360
  0
VERTEX
  8
0
  6
CONTINUOUS
 10
1.299320
 20
1.494680
  0
SEQEND
  8
0
  0
SOLID
  8
0
 62
    15
 10
1.336280
 20
1.515360
 11
1.336280
 21
2.263360
 12
1.369720
 22
1.538240
 13
1.369280
 23
2.286680
  0
POLYLINE
  8
0
  6
CONTINUOUS
 66
     1
 40
0.000000
 41
0.000000
  0
VERTEX
  8
0
  6
CONTINUOUS
 10
1.336280
 20
1.515360
  0
VERTEX
  8
0
  6
CONTINUOUS
 10
1.336280
 20
2.263360
  0
VERTEX
  8
0
  6
CONTINUOUS
 10
1.369280
 20
2.286680
  0
VERTEX
  8
0
  6
CONTINUOUS
 10
1.369720
 20
1.538240
  0
VERTEX
  8
0
  6
CONTINUOUS
 10
1.336280
 20
1.515360
  0
SEQEND
  8
0
  0
SOLID
  8
0
 62
    15
 10
1.369720
 20
1.538240
 11
1.369280
 21
2.286680
 12
1.398760
 22
1.564200
 13
1.398760
 23
2.312200
  0
POLYLINE
  8
0
  6
CONTINUOUS
 66
     1
 40
0.000000
 41
0.000000
  0
VERTEX
  8
0
  6
CONTINUOUS
 10
1.369720
 20
1.538240
  0
VERTEX
  8
0
  6
CONTINUOUS
 10
1.369280
 20
2.286680
  0
VERTEX
  8
0
  6
CONTINUOUS
 10
1.398760
 20
2.312200
  0
VERTEX
  8
0
  6
CONTINUOUS
 10
1.398760
 20
1.564200
  0
VERTEX
  8
0
  6
CONTINUOUS
 10
1.369720
 20
1.538240
  0
SEQEND
  8
0
  0
SOLID
  8
0
 62
    15
 10
1.398760
 20
1.564200
 11
1.398760
 21
2.312200
 12
1.424720
 22
1.591480
 13
1.424720
 23
2.339920
  0
POLYLINE
  8
0
  6
CONTINUOUS
 66
     1
 40
0.000000
 41
0.000000
  0
VERTEX
  8
0
  6
CONTINUOUS
 10
1.398760
 20
1.564200
  0
VERTEX
  8
0
  6
CONTINUOUS
 10
1.398760
 20
2.312200
  0
VERTEX
  8
0
  6
CONTINUOUS
 10
1.424720
 20
2.339920
  0
VERTEX
  8
0
  6
CONTINUOUS
 10
1.424720
 20
1.591480
  0
VERTEX
  8
0
  6
CONTINUOUS
 10
1.398760
 20
1.564200
  0
SEQEND
  8
0
  0
SOLID
  8
0
 62
    15
 10
1.424720
 20
1.591480
 11
1.424720
 21
2.339920
 12
1.447160
 22
1.620960
 13
1.446720
 23
2.368960
  0
POLYLINE
  8
0
  6
CONTINUOUS
 66
     1
 40
0.000000
 41
0.000000
  0
VERTEX
  8
0
  6
CONTINUOUS
 10
1.424720
 20
1.591480
  0
VERTEX
  8
0
  6
CONTINUOUS
 10
1.424720
 20
2.339920
  0
VERTEX
  8
0
  6
CONTINUOUS
 10
1.446720
 20
2.368960
  0
VERTEX
  8
0
  6
CONTINUOUS
 10
1.447160
 20
1.620960
  0
VERTEX
  8
0
  6
CONTINUOUS
 10
1.424720
 20
1.591480
  0
SEQEND
  8
0
  0
SOLID
  8
0
 62
    15
 10
1.447160
 20
1.620960
 11
1.446720
 21
2.368960
 12
1.466080
 22
1.651320
 13
1.466080
 23
2.399320
  0
POLYLINE
  8
0
  6
CONTINUOUS
 66
     1
 40
0.000000
 41
0.000000
  0
VERTEX
  8
0
  6
CONTINUOUS
 10
1.447160
 20
1.620960
  0
VERTEX
  8
0
  6
CONTINUOUS
 10
1.446720
 20
2.368960
  0
VERTEX
  8
0
  6
CONTINUOUS
 10
1.466080
 20
2.399320
  0
VERTEX
  8
0
  6
CONTINUOUS
 10
1.466080
 20
1.651320
  0
VERTEX
  8
0
  6
CONTINUOUS
 10
1.447160
 20
1.620960
  0
SEQEND
  8
0
  0
SOLID
  8
0
 62
    15
 10
1.466080
 20
1.651320
 11
1.466080
 21
2.399320
 12
1.495120
 22
1.713360
 13
1.495120
 23
2.461360
  0
POLYLINE
  8
0
  6
CONTINUOUS
 66
     1
 40
0.000000
 41
0.000000
  0
VERTEX
  8
0
  6
CONTINUOUS
 10
1.466080
 20
1.651320
  0
VERTEX
  8
0
  6
CONTINUOUS
 10
1.466080
 20
2.399320
  0
VERTEX
  8
0
  6
CONTINUOUS
 10
1.495120
 20
2.461360
  0
VERTEX
  8
0
  6
CONTINUOUS
 10
1.495120
 20
1.713360
  0
VERTEX
  8
0
  6
CONTINUOUS
 10
1.466080
 20
1.651320
  0
SEQEND
  8
0
  0
SOLID
  8
0
 62
    15
 10
1.495120
 20
1.713360
 11
1.495120
 21
2.461360
 12
1.513600
 22
1.774080
 13
1.513600
 23
2.522080
  0
POLYLINE
  8
0
  6
CONTINUOUS
 66
     1
 40
0.000000
 41
0.000000
  0
VERTEX
  8
0
  6
CONTINUOUS
 10
1.495120
 20
1.713360
  0
VERTEX
  8
0
  6
CONTINUOUS
 10
1.495120
 20
2.461360
  0
VERTEX
  8
0
  6
CONTINUOUS
 10
1.513600
 20
2.522080
  0
VERTEX
  8
0
  6
CONTINUOUS
 10
1.513600
 20
1.774080
  0
VERTEX
  8
0
  6
CONTINUOUS
 10
1.495120
 20
1.713360
  0
SEQEND
  8
0
  0
SOLID
  8
0
 62
    15
 10
1.513600
 20
1.774080
 11
1.513600
 21
2.522080
 12
1.523280
 22
1.830400
 13
1.523280
 23
2.578400
  0
POLYLINE
  8
0
  6
CONTINUOUS
 66
     1
 40
0.000000
 41
0.000000
  0
VERTEX
  8
0
  6
CONTINUOUS
 10
1.513600
 20
1.774080
  0
VERTEX
  8
0
  6
CONTINUOUS
 10
1.513600
 20
2.522080
  0
VERTEX
  8
0
  6
CONTINUOUS
 10
1.523280
 20
2.578400
  0
VERTEX
  8
0
  6
CONTINUOUS
 10
1.523280
 20
1.830400
  0
VERTEX
  8
0
  6
CONTINUOUS
 10
1.513600
 20
1.774080
  0
SEQEND
  8
0
  0
SOLID
  8
0
 62
    15
 10
1.522840
 20
1.830400
 11
1.522840
 21
2.578400
 12
2.948000
 22
1.830400
 13
2.948000
 23
2.578400
  0
POLYLINE
  8
0
  6
CONTINUOUS
 66
     1
 40
0.000000
 41
0.000000
  0
VERTEX
  8
0
  6
CONTINUOUS
 10
1.522840
 20
1.830400
  0
VERTEX
  8
0
  6
CONTINUOUS
 10
1.522840
 20
2.578400
  0
VERTEX
  8
0
  6
CONTINUOUS
 10
2.948000
 20
2.578400
  0
VERTEX
  8
0
  6
CONTINUOUS
 10
2.948000
 20
1.830400
  0
VERTEX
  8
0
  6
CONTINUOUS
 10
1.522840
 20
1.830400
  0
SEQEND
  8
0
  0
SOLID
  8
0
 62
    15
 10
2.948000
 20
1.830400
 11
2.948000
 21
2.578400
 12
2.969120
 22
1.637680
 13
2.969120
 23
2.386120
  0
POLYLINE
  8
0
  6
CONTINUOUS
 66
     1
 40
0.000000
 41
0.000000
  0
VERTEX
  8
0
  6
CONTINUOUS
 10
2.948000
 20
1.830400
  0
VERTEX
  8
0
  6
CONTINUOUS
 10
2.948000
 20
2.578400
  0
VERTEX
  8
0
  6
CONTINUOUS
 10
2.969120
 20
2.386120
  0
VERTEX
  8
0
  6
CONTINUOUS
 10
2.969120
 20
1.637680
  0
VERTEX
  8
0
  6
CONTINUOUS
 10
2.948000
 20
1.830400
  0
SEQEND
  8
0
  0
SOLID
  8
0
 62
    15
 10
2.969120
 20
1.637680
 11
2.969120
 21
2.386120
 12
3.078240
 22
1.637680
 13
3.078240
 23
2.386120
  0
POLYLINE
  8
0
  6
CONTINUOUS
 66
     1
 40
0.000000
 41
0.000000
  0
VERTEX
  8
0
  6
CONTINUOUS
 10
2.969120
 20
1.637680
  0
VERTEX
  8
0
  6
CONTINUOUS
 10
2.969120
 20
2.386120
  0
VERTEX
  8
0
  6
CONTINUOUS
 10
3.078240
 20
2.386120
  0
VERTEX
  8
0
  6
CONTINUOUS
 10
3.078240
 20
1.637680
  0
VERTEX
  8
0
  6
CONTINUOUS
 10
2.969120
 20
1.637680
  0
SEQEND
  8
0
  0
SOLID
  8
0
 62
    15
 10
3.078240
 20
1.637680
 11
3.078240
 21
2.386120
 12
3.084840
 22
1.668480
 13
3.084840
 23
2.416480
  0
POLYLINE
  8
0
  6
CONTINUOUS
 66
     1
 40
0.000000
 41
0.000000
  0
VERTEX
  8
0
  6
CONTINUOUS
 10
3.078240
 20
1.637680
  0
VERTEX
  8
0
  6
CONTINUOUS
 10
3.078240
 20
2.386120
  0
VERTEX
  8
0
  6
CONTINUOUS
 10
3.084840
 20
2.416480
  0
VERTEX
  8
0
  6
CONTINUOUS
 10
3.084840
 20
1.668480
  0
VERTEX
  8
0
  6
CONTINUOUS
 10
3.078240
 20
1.637680
  0
SEQEND
  8
0
  0
SOLID
  8
0
 62
    15
 10
3.084840
 20
1.668480
 11
3.084840
 21
2.416480
 12
3.096720
 22
1.696640
 13
3.096720
 23
2.445080
  0
POLYLINE
  8
0
  6
CONTINUOUS
 66
     1
 40
0.000000
 41
0.000000
  0
VERTEX
  8
0
  6
CONTINUOUS
 10
3.084840
 20
1.668480
  0
VERTEX
  8
0
  6
CONTINUOUS
 10
3.084840
 20
2.416480
  0
VERTEX
  8
0
  6
CONTINUOUS
 10
3.096720
 20
2.445080
  0
VERTEX
  8
0
  6
CONTINUOUS
 10
3.096720
 20
1.696640
  0
VERTEX
  8
0
  6
CONTINUOUS
 10
3.084840
 20
1.668480
  0
SEQEND
  8
0
  0
SOLID
  8
0
 62
    15
 10
3.096720
 20
1.696640
 11
3.096720
 21
2.445080
 12
3.113440
 22
1.722160
 13
3.113440
 23
2.470160
  0
POLYLINE
  8
0
  6
CONTINUOUS
 66
     1
 40
0.000000
 41
0.000000
  0
VERTEX
  8
0
  6
CONTINUOUS
 10
3.096720
 20
1.696640
  0
VERTEX
  8
0
  6
CONTINUOUS
 10
3.096720
 20
2.445080
  0
VERTEX
  8
0
  6
CONTINUOUS
 10
3.113440
 20
2.470160
  0
VERTEX
  8
0
  6
CONTINUOUS
 10
3.113440
 20
1.722160
  0
VERTEX
  8
0
  6
CONTINUOUS
 10
3.096720
 20
1.696640
  0
SEQEND
  8
0
  0
SOLID
  8
0
 62
    15
 10
3.113440
 20
1.722160
 11
3.113440
 21
2.470160
 12
3.134120
 22
1.744160
 13
3.134120
 23
2.492160
  0
POLYLINE
  8
0
  6
CONTINUOUS
 66
     1
 40
0.000000
 41
0.000000
  0
VERTEX
  8
0
  6
CONTINUOUS
 10
3.113440
 20
1.722160
  0
VERTEX
  8
0
  6
CONTINUOUS
 10
3.113440
 20
2.470160
  0
VERTEX
  8
0
  6
CONTINUOUS
 10
3.134120
 20
2.492160
  0
VERTEX
  8
0
  6
CONTINUOUS
 10
3.134120
 20
1.744160
  0
VERTEX
  8
0
  6
CONTINUOUS
 10
3.113440
 20
1.722160
  0
SEQEND
  8
0
  0
SOLID
  8
0
 62
    15
 10
3.134120
 20
1.744160
 11
3.134120
 21
2.492160
 12
3.158320
 22
1.762200
 13
3.158320
 23
2.510200
  0
POLYLINE
  8
0
  6
CONTINUOUS
 66
     1
 40
0.000000
 41
0.000000
  0
VERTEX
  8
0
  6
CONTINUOUS
 10
3.134120
 20
1.744160
  0
VERTEX
  8
0
  6
CONTINUOUS
 10
3.134120
 20
2.492160
  0
VERTEX
  8
0
  6
CONTINUOUS
 10
3.158320
 20
2.510200
  0
VERTEX
  8
0
  6
CONTINUOUS
 10
3.158320
 20
1.762200
  0
VERTEX
  8
0
  6
CONTINUOUS
 10
3.134120
 20
1.744160
  0
SEQEND
  8
0
  0
SOLID
  8
0
 62
    15
 10
3.158320
 20
1.762200
 11
3.158320
 21
2.510200
 12
3.185600
 22
1.775840
 13
3.185600
 23
2.523840
  0
POLYLINE
  8
0
  6
CONTINUOUS
 66
     1
 40
0.000000
 41
0.000000
  0
VERTEX
  8
0
  6
CONTINUOUS
 10
3.158320
 20
1.762200
  0
VERTEX
  8
0
  6
CONTINUOUS
 10
3.158320
 20
2.510200
  0
VERTEX
  8
0
  6
CONTINUOUS
 10
3.185600
 20
2.523840
  0
VERTEX
  8
0
  6
CONTINUOUS
 10
3.185600
 20
1.775840
  0
VERTEX
  8
0
  6
CONTINUOUS
 10
3.158320
 20
1.762200
  0
SEQEND
  8
0
  0
SOLID
  8
0
 62
    15
 10
3.185600
 20
1.775840
 11
3.185600
 21
2.523840
 12
3.215520
 22
1.784200
 13
3.215520
 23
2.532640
  0
POLYLINE
  8
0
  6
CONTINUOUS
 66
     1
 40
0.000000
 41
0.000000
  0
VERTEX
  8
0
  6
CONTINUOUS
 10
3.185600
 20
1.775840
  0
VERTEX
  8
0
  6
CONTINUOUS
 10
3.185600
 20
2.523840
  0
VERTEX
  8
0
  6
CONTINUOUS
 10
3.215520
 20
2.532640
  0
VERTEX
  8
0
  6
CONTINUOUS
 10
3.215520
 20
1.784200
  0
VERTEX
  8
0
  6
CONTINUOUS
 10
3.185600
 20
1.775840
  0
SEQEND
  8
0
  0
SOLID
  8
0
 62
    15
 10
3.215520
 20
1.784200
 11
3.215520
 21
2.532640
 12
3.247200
 22
1.787280
 13
3.247200
 23
2.535280
  0
POLYLINE
  8
0
  6
CONTINUOUS
 66
     1
 40
0.000000
 41
0.000000
  0
VERTEX
  8
0
  6
CONTINUOUS
 10
3.215520
 20
1.784200
  0
VERTEX
  8
0
  6
CONTINUOUS
 10
3.215520
 20
2.532640
  0
VERTEX
  8
0
  6
CONTINUOUS
 10
3.247200
 20
2.535280
  0
VERTEX
  8
0
  6
CONTINUOUS
 10
3.247200
 20
1.787280
  0
VERTEX
  8
0
  6
CONTINUOUS
 10
3.215520
 20
1.784200
  0
SEQEND
  8
0
  0
SOLID
  8
0
 62
    15
 10
3.247200
 20
1.787280
 11
3.247200
 21
2.535280
 12
3.279320
 22
1.784200
 13
3.279320
 23
2.532640
  0
POLYLINE
  8
0
  6
CONTINUOUS
 66
     1
 40
0.000000
 41
0.000000
  0
VERTEX
  8
0
  6
CONTINUOUS
 10
3.247200
 20
1.787280
  0
VERTEX
  8
0
  6
CONTINUOUS
 10
3.247200
 20
2.535280
  0
VERTEX
  8
0
  6
CONTINUOUS
 10
3.279320
 20
2.532640
  0
VERTEX
  8
0
  6
CONTINUOUS
 10
3.279320
 20
1.784200
  0
VERTEX
  8
0
  6
CONTINUOUS
 10
3.247200
 20
1.787280
  0
SEQEND
  8
0
  0
SOLID
  8
0
 62
    15
 10
3.279320
 20
1.784200
 11
3.279320
 21
2.532640
 12
3.309240
 22
1.775840
 13
3.308800
 23
2.523840
  0
POLYLINE
  8
0
  6
CONTINUOUS
 66
     1
 40
0.000000
 41
0.000000
  0
VERTEX
  8
0
  6
CONTINUOUS
 10
3.279320
 20
1.784200
  0
VERTEX
  8
0
  6
CONTINUOUS
 10
3.279320
 20
2.532640
  0
VERTEX
  8
0
  6
CONTINUOUS
 10
3.308800
 20
2.523840
  0
VERTEX
  8
0
  6
CONTINUOUS
 10
3.309240
 20
1.775840
  0
VERTEX
  8
0
  6
CONTINUOUS
 10
3.279320
 20
1.784200
  0
SEQEND
  8
0
  0
SOLID
  8
0
 62
    15
 10
3.309240
 20
1.775840
 11
3.308800
 21
2.523840
 12
3.336520
 22
1.762200
 13
3.336520
 23
2.510200
  0
POLYLINE
  8
0
  6
CONTINUOUS
 66
     1
 40
0.000000
 41
0.000000
  0
VERTEX
  8
0
  6
CONTINUOUS
 10
3.309240
 20
1.775840
  0
VERTEX
  8
0
  6
CONTINUOUS
 10
3.308800
 20
2.523840
  0
VERTEX
  8
0
  6
CONTINUOUS
 10
3.336520
 20
2.510200
  0
VERTEX
  8
0
  6
CONTINUOUS
 10
3.336520
 20
1.762200
  0
VERTEX
  8
0
  6
CONTINUOUS
 10
3.309240
 20
1.775840
  0
SEQEND
  8
0
  0
SOLID
  8
0
 62
    15
 10
3.336520
 20
1.762200
 11
3.336520
 21
2.510200
 12
3.360720
 22
1.744160
 13
3.360720
 23
2.492160
  0
POLYLINE
  8
0
  6
CONTINUOUS
 66
     1
 40
0.000000
 41
0.000000
  0
VERTEX
  8
0
  6
CONTINUOUS
 10
3.336520
 20
1.762200
  0
VERTEX
  8
0
  6
CONTINUOUS
 10
3.336520
 20
2.510200
  0
VERTEX
  8
0
  6
CONTINUOUS
 10
3.360720
 20
2.492160
  0
VERTEX
  8
0
  6
CONTINUOUS
 10
3.360720
 20
1.744160
  0
VERTEX
  8
0
  6
CONTINUOUS
 10
3.336520
 20
1.762200
  0
SEQEND
  8
0
  0
SOLID
  8
0
 62
    15
 10
3.360720
 20
1.744160
 11
3.360720
 21
2.492160
 12
3.381400
 22
1.722160
 13
3.381400
 23
2.470160
  0
POLYLINE
  8
0
  6
CONTINUOUS
 66
     1
 40
0.000000
 41
0.000000
  0
VERTEX
  8
0
  6
CONTINUOUS
 10
3.360720
 20
1.744160
  0
VERTEX
  8
0
  6
CONTINUOUS
 10
3.360720
 20
2.492160
  0
VERTEX
  8
0
  6
CONTINUOUS
 10
3.381400
 20
2.470160
  0
VERTEX
  8
0
  6
CONTINUOUS
 10
3.381400
 20
1.722160
  0
VERTEX
  8
0
  6
CONTINUOUS
 10
3.360720
 20
1.744160
  0
SEQEND
  8
0
  0
SOLID
  8
0
 62
    15
 10
3.381400
 20
1.722160
 11
3.381400
 21
2.470160
 12
3.398120
 22
1.696640
 13
3.397680
 23
2.444640
  0
POLYLINE
  8
0
  6
CONTINUOUS
 66
     1
 40
0.000000
 41
0.000000
  0
VERTEX
  8
0
  6
CONTINUOUS
 10
3.381400
 20
1.722160
  0
VERTEX
  8
0
  6
CONTINUOUS
 10
3.381400
 20
2.470160
  0
VERTEX
  8
0
  6
CONTINUOUS
 10
3.397680
 20
2.444640
  0
VERTEX
  8
0
  6
CONTINUOUS
 10
3.398120
 20
1.696640
  0
VERTEX
  8
0
  6
CONTINUOUS
 10
3.381400
 20
1.722160
  0
SEQEND
  8
0
  0
SOLID
  8
0
 62
    15
 10
3.398120
 20
1.696640
 11
3.397680
 21
2.444640
 12
3.410000
 22
1.668040
 13
3.409560
 23
2.416040
  0
POLYLINE
  8
0
  6
CONTINUOUS
 66
     1
 40
0.000000
 41
0.000000
  0
VERTEX
  8
0
  6
CONTINUOUS
 10
3.398120
 20
1.696640
  0
VERTEX
  8
0
  6
CONTINUOUS
 10
3.397680
 20
2.444640
  0
VERTEX
  8
0
  6
CONTINUOUS
 10
3.409560
 20
2.416040
  0
VERTEX
  8
0
  6
CONTINUOUS
 10
3.410000
 20
1.668040
  0
VERTEX
  8
0
  6
CONTINUOUS
 10
3.398120
 20
1.696640
  0
SEQEND
  8
0
  0
SOLID
  8
0
 62
    15
 10
3.410000
 20
1.668040
 11
3.409560
 21
2.416040
 12
3.416160
 22
1.637680
 13
3.416160
 23
2.385680
  0
POLYLINE
  8
0
  6
CONTINUOUS
 66
     1
 40
0.000000
 41
0.000000
  0
VERTEX
  8
0
  6
CONTINUOUS
 10
3.410000
 20
1.668040
  0
VERTEX
  8
0
  6
CONTINUOUS
 10
3.409560
 20
2.416040
  0
VERTEX
  8
0
  6
CONTINUOUS
 10
3.416160
 20
2.385680
  0
VERTEX
  8
0
  6
CONTINUOUS
 10
3.416160
 20
1.637680
  0
VERTEX
  8
0
  6
CONTINUOUS
 10
3.410000
 20
1.668040
  0
SEQEND
  8
0
  0
SOLID
  8
0
 62
    15
 10
3.416160
 20
1.637680
 11
3.416160
 21
2.385680
 12
3.517800
 22
1.638120
 13
3.517800
 23
2.386120
  0
POLYLINE
  8
0
  6
CONTINUOUS
 66
     1
 40
0.000000
 41
0.000000
  0
VERTEX
  8
0
  6
CONTINUOUS
 10
3.416160
 20
1.637680
  0
VERTEX
  8
0
  6
CONTINUOUS
 10
3.416160
 20
2.385680
  0
VERTEX
  8
0
  6
CONTINUOUS
 10
3.517800
 20
2.386120
  0
VERTEX
  8
0
  6
CONTINUOUS
 10
3.517800
 20
1.638120
  0
VERTEX
  8
0
  6
CONTINUOUS
 10
3.416160
 20
1.637680
  0
SEQEND
  8
0
  0
SOLID
  8
0
 62
    15
 10
3.517800
 20
1.638120
 11
3.517800
 21
2.386120
 12
3.524400
 22
1.668480
 13
3.524400
 23
2.416920
  0
POLYLINE
  8
0
  6
CONTINUOUS
 66
     1
 40
0.000000
 41
0.000000
  0
VERTEX
  8
0
  6
CONTINUOUS
 10
3.517800
 20
1.638120
  0
VERTEX
  8
0
  6
CONTINUOUS
 10
3.517800
 20
2.386120
  0
VERTEX
  8
0
  6
CONTINUOUS
 10
3.524400
 20
2.416920
  0
VERTEX
  8
0
  6
CONTINUOUS
 10
3.524400
 20
1.668480
  0
VERTEX
  8
0
  6
CONTINUOUS
 10
3.517800
 20
1.638120
  0
SEQEND
  8
0
  0
SOLID
  8
0
 62
    15
 10
3.524400
 20
1.668480
 11
3.524400
 21
2.416920
 12
3.536280
 22
1.697080
 13
3.536280
 23
2.445080
  0
POLYLINE
  8
0
  6
CONTINUOUS
 66
     1
 40
0.000000
 41
0.000000
  0
VERTEX
  8
0
  6
CONTINUOUS
 10
3.524400
 20
1.668480
  0
VERTEX
  8
0
  6
CONTINUOUS
 10
3.524400
 20
2.416920
  0
VERTEX
  8
0
  6
CONTINUOUS
 10
3.536280
 20
2.445080
  0
VERTEX
  8
0
  6
CONTINUOUS
 10
3.536280
 20
1.697080
  0
VERTEX
  8
0
  6
CONTINUOUS
 10
3.524400
 20
1.668480
  0
SEQEND
  8
0
  0
SOLID
  8
0
 62
    15
 10
3.536280
 20
1.697080
 11
3.536280
 21
2.445080
 12
3.553000
 22
1.722600
 13
3.553000
 23
2.470600
  0
POLYLINE
  8
0
  6
CONTINUOUS
 66
     1
 40
0.000000
 41
0.000000
  0
VERTEX
  8
0
  6
CONTINUOUS
 10
3.536280
 20
1.697080
  0
VERTEX
  8
0
  6
CONTINUOUS
 10
3.536280
 20
2.445080
  0
VERTEX
  8
0
  6
CONTINUOUS
 10
3.553000
 20
2.470600
  0
VERTEX
  8
0
  6
CONTINUOUS
 10
3.553000
 20
1.722600
  0
VERTEX
  8
0
  6
CONTINUOUS
 10
3.536280
 20
1.697080
  0
SEQEND
  8
0
  0
SOLID
  8
0
 62
    15
 10
3.553000
 20
1.722600
 11
3.553000
 21
2.470600
 12
3.573680
 22
1.744600
 13
3.573680
 23
2.492600
  0
POLYLINE
  8
0
  6
CONTINUOUS
 66
     1
 40
0.000000
 41
0.000000
  0
VERTEX
  8
0
  6
CONTINUOUS
 10
3.553000
 20
1.722600
  0
VERTEX
  8
0
  6
CONTINUOUS
 10
3.553000
 20
2.470600
  0
VERTEX
  8
0
  6
CONTINUOUS
 10
3.573680
 20
2.492600
  0
VERTEX
  8
0
  6
CONTINUOUS
 10
3.573680
 20
1.744600
  0
VERTEX
  8
0
  6
CONTINUOUS
 10
3.553000
 20
1.722600
  0
SEQEND
  8
0
  0
SOLID
  8
0
 62
    15
 10
3.573680
 20
1.744600
 11
3.573680
 21
2.492600
 12
3.597880
 22
1.762640
 13
3.597880
 23
2.510640
  0
POLYLINE
  8
0
  6
CONTINUOUS
 66
     1
 40
0.000000
 41
0.000000
  0
VERTEX
  8
0
  6
CONTINUOUS
 10
3.573680
 20
1.744600
  0
VERTEX
  8
0
  6
CONTINUOUS
 10
3.573680
 20
2.492600
  0
VERTEX
  8
0
  6
CONTINUOUS
 10
3.597880
 20
2.510640
  0
VERTEX
  8
0
  6
CONTINUOUS
 10
3.597880
 20
1.762640
  0
VERTEX
  8
0
  6
CONTINUOUS
 10
3.573680
 20
1.744600
  0
SEQEND
  8
0
  0
SOLID
  8
0
 62
    15
 10
3.597880
 20
1.762640
 11
3.597880
 21
2.510640
 12
3.625160
 22
1.775840
 13
3.625160
 23
2.524280
  0
POLYLINE
  8
0
  6
CONTINUOUS
 66
     1
 40
0.000000
 41
0.000000
  0
VERTEX
  8
0
  6
CONTINUOUS
 10
3.597880
 20
1.762640
  0
VERTEX
  8
0
  6
CONTINUOUS
 10
3.597880
 20
2.510640
  0
VERTEX
  8
0
  6
CONTINUOUS
 10
3.625160
 20
2.524280
  0
VERTEX
  8
0
  6
CONTINUOUS
 10
3.625160
 20
1.775840
  0
VERTEX
  8
0
  6
CONTINUOUS
 10
3.597880
 20
1.762640
  0
SEQEND
  8
0
  0
SOLID
  8
0
 62
    15
 10
3.625160
 20
1.775840
 11
3.625160
 21
2.524280
 12
3.655080
 22
1.784640
 13
3.655080
 23
2.532640
  0
POLYLINE
  8
0
  6
CONTINUOUS
 66
     1
 40
0.000000
 41
0.000000
  0
VERTEX
  8
0
  6
CONTINUOUS
 10
3.625160
 20
1.775840
  0
VERTEX
  8
0
  6
CONTINUOUS
 10
3.625160
 20
2.524280
  0
VERTEX
  8
0
  6
CONTINUOUS
 10
3.655080
 20
2.532640
  0
VERTEX
  8
0
  6
CONTINUOUS
 10
3.655080
 20
1.784640
  0
VERTEX
  8
0
  6
CONTINUOUS
 10
3.625160
 20
1.775840
  0
SEQEND
  8
0
  0
SOLID
  8
0
 62
    15
 10
3.655080
 20
1.784640
 11
3.655080
 21
2.532640
 12
3.686760
 22
1.787720
 13
3.686760
 23
2.535720
  0
POLYLINE
  8
0
  6
CONTINUOUS
 66
     1
 40
0.000000
 41
0.000000
  0
VERTEX
  8
0
  6
CONTINUOUS
 10
3.655080
 20
1.784640
  0
VERTEX
  8
0
  6
CONTINUOUS
 10
3.655080
 20
2.532640
  0
VERTEX
  8
0
  6
CONTINUOUS
 10
3.686760
 20
2.535720
  0
VERTEX
  8
0
  6
CONTINUOUS
 10
3.686760
 20
1.787720
  0
VERTEX
  8
0
  6
CONTINUOUS
 10
3.655080
 20
1.784640
  0
SEQEND
  8
0
  0
SOLID
  8
0
 62
    15
 10
3.686760
 20
1.787720
 11
3.686760
 21
2.535720
 12
3.718880
 22
1.784640
 13
3.718440
 23
2.532640
  0
POLYLINE
  8
0
  6
CONTINUOUS
 66
     1
 40
0.000000
 41
0.000000
  0
VERTEX
  8
0
  6
CONTINUOUS
 10
3.686760
 20
1.787720
  0
VERTEX
  8
0
  6
CONTINUOUS
 10
3.686760
 20
2.535720
  0
VERTEX
  8
0
  6
CONTINUOUS
 10
3.718440
 20
2.532640
  0
VERTEX
  8
0
  6
CONTINUOUS
 10
3.718880
 20
1.784640
  0
VERTEX
  8
0
  6
CONTINUOUS
 10
3.686760
 20
1.787720
  0
SEQEND
  8
0
  0
SOLID
  8
0
 62
    15
 10
3.718880
 20
1.784640
 11
3.718440
 21
2.532640
 12
3.748800
 22
1.775840
 13
3.748360
 23
2.524280
  0
POLYLINE
  8
0
  6
CONTINUOUS
 66
     1
 40
0.000000
 41
0.000000
  0
VERTEX
  8
0
  6
CONTINUOUS
 10
3.718880
 20
1.784640
  0
VERTEX
  8
0
  6
CONTINUOUS
 10
3.718440
 20
2.532640
  0
VERTEX
  8
0
  6
CONTINUOUS
 10
3.748360
 20
2.524280
  0
VERTEX
  8
0
  6
CONTINUOUS
 10
3.748800
 20
1.775840
  0
VERTEX
  8
0
  6
CONTINUOUS
 10
3.718880
 20
1.784640
  0
SEQEND
  8
0
  0
SOLID
  8
0
 62
    15
 10
3.748800
 20
1.775840
 11
3.748360
 21
2.524280
 12
3.776080
 22
1.762640
 13
3.775640
 23
2.510640
  0
POLYLINE
  8
0
  6
CONTINUOUS
 66
     1
 40
0.000000
 41
0.000000
  0
VERTEX
  8
0
  6
CONTINUOUS
 10
3.748800
 20
1.775840
  0
VERTEX
  8
0
  6
CONTINUOUS
 10
3.748360
 20
2.524280
  0
VERTEX
  8
0
  6
CONTINUOUS
 10
3.775640
 20
2.510640
  0
VERTEX
  8
0
  6
CONTINUOUS
 10
3.776080
 20
1.762640
  0
VERTEX
  8
0
  6
CONTINUOUS
 10
3.748800
 20
1.775840
  0
SEQEND
  8
0
  0
SOLID
  8
0
 62
    15
 10
3.776080
 20
1.762640
 11
3.775640
 21
2.510640
 12
3.800280
 22
1.744160
 13
3.800280
 23
2.492600
  0
POLYLINE
  8
0
  6
CONTINUOUS
 66
     1
 40
0.000000
 41
0.000000
  0
VERTEX
  8
0
  6
CONTINUOUS
 10
3.776080
 20
1.762640
  0
VERTEX
  8
0
  6
CONTINUOUS
 10
3.775640
 20
2.510640
  0
VERTEX
  8
0
  6
CONTINUOUS
 10
3.800280
 20
2.492600
  0
VERTEX
  8
0
  6
CONTINUOUS
 10
3.800280
 20
1.744160
  0
VERTEX
  8
0
  6
CONTINUOUS
 10
3.776080
 20
1.762640
  0
SEQEND
  8
0
  0
SOLID
  8
0
 62
    15
 10
3.800280
 20
1.744160
 11
3.800280
 21
2.492600
 12
3.820960
 22
1.722160
 13
3.820960
 23
2.470160
  0
POLYLINE
  8
0
  6
CONTINUOUS
 66
     1
 40
0.000000
 41
0.000000
  0
VERTEX
  8
0
  6
CONTINUOUS
 10
3.800280
 20
1.744160
  0
VERTEX
  8
0
  6
CONTINUOUS
 10
3.800280
 20
2.492600
  0
VERTEX
  8
0
  6
CONTINUOUS
 10
3.820960
 20
2.470160
  0
VERTEX
  8
0
  6
CONTINUOUS
 10
3.820960
 20
1.722160
  0
VERTEX
  8
0
  6
CONTINUOUS
 10
3.800280
 20
1.744160
  0
SEQEND
  8
0
  0
SOLID
  8
0
 62
    15
 10
3.820960
 20
1.722160
 11
3.820960
 21
2.470160
 12
3.837240
 22
1.696640
 13
3.837240
 23
2.444640
  0
POLYLINE
  8
0
  6
CONTINUOUS
 66
     1
 40
0.000000
 41
0.000000
  0
VERTEX
  8
0
  6
CONTINUOUS
 10
3.820960
 20
1.722160
  0
VERTEX
  8
0
  6
CONTINUOUS
 10
3.820960
 20
2.470160
  0
VERTEX
  8
0
  6
CONTINUOUS
 10
3.837240
 20
2.444640
  0
VERTEX
  8
0
  6
CONTINUOUS
 10
3.837240
 20
1.696640
  0
VERTEX
  8
0
  6
CONTINUOUS
 10
3.820960
 20
1.722160
  0
SEQEND
  8
0
  0
SOLID
  8
0
 62
    15
 10
3.837240
 20
1.696640
 11
3.837240
 21
2.444640
 12
3.849120
 22
1.668480
 13
3.849120
 23
2.416480
  0
POLYLINE
  8
0
  6
CONTINUOUS
 66
     1
 40
0.000000
 41
0.000000
  0
VERTEX
  8
0
  6
CONTINUOUS
 10
3.837240
 20
1.696640
  0
VERTEX
  8
0
  6
CONTINUOUS
 10
3.837240
 20
2.444640
  0
VERTEX
  8
0
  6
CONTINUOUS
 10
3.849120
 20
2.416480
  0
VERTEX
  8
0
  6
CONTINUOUS
 10
3.849120
 20
1.668480
  0
VERTEX
  8
0
  6
CONTINUOUS
 10
3.837240
 20
1.696640
  0
SEQEND
  8
0
  0
SOLID
  8
0
 62
    15
 10
3.849120
 20
1.668480
 11
3.849120
 21
2.416480
 12
3.855720
 22
1.637680
 13
3.855720
 23
2.385680
  0
POLYLINE
  8
0
  6
CONTINUOUS
 66
     1
 40
0.000000
 41
0.000000
  0
VERTEX
  8
0
  6
CONTINUOUS
 10
3.849120
 20
1.668480
  0
VERTEX
  8
0
  6
CONTINUOUS
 10
3.849120
 20
2.416480
  0
VERTEX
  8
0
  6
CONTINUOUS
 10
3.855720
 20
2.385680
  0
VERTEX
  8
0
  6
CONTINUOUS
 10
3.855720
 20
1.637680
  0
VERTEX
  8
0
  6
CONTINUOUS
 10
3.849120
 20
1.668480
  0
SEQEND
  8
0
  0
SOLID
  8
0
 62
    15
 10
3.855720
 20
1.637680
 11
3.855720
 21
2.385680
 12
3.967480
 22
1.638120
 13
3.967480
 23
2.386120
  0
POLYLINE
  8
0
  6
CONTINUOUS
 66
     1
 40
0.000000
 41
0.000000
  0
VERTEX
  8
0
  6
CONTINUOUS
 10
3.855720
 20
1.637680
  0
VERTEX
  8
0
  6
CONTINUOUS
 10
3.855720
 20
2.385680
  0
VERTEX
  8
0
  6
CONTINUOUS
 10
3.967480
 20
2.386120
  0
VERTEX
  8
0
  6
CONTINUOUS
 10
3.967480
 20
1.638120
  0
VERTEX
  8
0
  6
CONTINUOUS
 10
3.855720
 20
1.637680
  0
SEQEND
  8
0
  0
POLYLINE
  8
0
  6
CONTINUOUS
 66
     1
 40
0.000000
 41
0.000000
  0
VERTEX
  8
0
  6
CONTINUOUS
 10
3.967480
 20
1.638120
  0
VERTEX
  8
0
  6
CONTINUOUS
 10
3.974080
 20
1.668480
  0
VERTEX
  8
0
  6
CONTINUOUS
 10
3.985960
 20
1.697080
  0
VERTEX
  8
0
  6
CONTINUOUS
 10
4.002680
 20
1.722160
  0
VERTEX
  8
0
  6
CONTINUOUS
 10
4.023360
 20
1.744160
  0
VERTEX
  8
0
  6
CONTINUOUS
 10
4.047560
 20
1.762640
  0
VERTEX
  8
0
  6
CONTINUOUS
 10
4.074840
 20
1.775840
  0
VERTEX
  8
0
  6
CONTINUOUS
 10
4.104760
 20
1.784640
  0
VERTEX
  8
0
  6
CONTINUOUS
 10
4.136440
 20
1.787720
  0
VERTEX
  8
0
  6
CONTINUOUS
 10
4.168560
 20
1.784640
  0
VERTEX
  8
0
  6
CONTINUOUS
 10
4.198480
 20
1.775840
  0
VERTEX
  8
0
  6
CONTINUOUS
 10
4.225760
 20
1.762200
  0
VERTEX
  8
0
  6
CONTINUOUS
 10
4.249960
 20
1.744160
  0
VERTEX
  8
0
  6
CONTINUOUS
 10
4.270640
 20
1.722160
  0
VERTEX
  8
0
  6
CONTINUOUS
 10
4.286920
 20
1.696640
  0
VERTEX
  8
0
  6
CONTINUOUS
 10
4.298800
 20
1.668480
  0
VERTEX
  8
0
  6
CONTINUOUS
 10
4.305400
 20
1.637680
  0
VERTEX
  8
0
  6
CONTINUOUS
 10
4.413640
 20
1.638120
  0
VERTEX
  8
0
  6
CONTINUOUS
 10
4.420240
 20
1.668480
  0
VERTEX
  8
0
  6
CONTINUOUS
 10
4.432120
 20
1.697080
  0
VERTEX
  8
0
  6
CONTINUOUS
 10
4.448840
 20
1.722160
  0
VERTEX
  8
0
  6
CONTINUOUS
 10
4.469520
 20
1.744160
  0
VERTEX
  8
0
  6
CONTINUOUS
 10
4.493720
 20
1.762640
  0
VERTEX
  8
0
  6
CONTINUOUS
 10
4.521000
 20
1.775840
  0
VERTEX
  8
0
  6
CONTINUOUS
 10
4.550920
 20
1.784640
  0
VERTEX
  8
0
  6
CONTINUOUS
 10
4.582600
 20
1.787720
  0
VERTEX
  8
0
  6
CONTINUOUS
 10
4.614720
 20
1.784640
  0
VERTEX
  8
0
  6
CONTINUOUS
 10
4.644640
 20
1.775840
  0
VERTEX
  8
0
  6
CONTINUOUS
 10
4.671920
 20
1.762200
  0
VERTEX
  8
0
  6
CONTINUOUS
 10
4.696120
 20
1.744160
  0
VERTEX
  8
0
  6
CONTINUOUS
 10
4.716800
 20
1.722160
  0
VERTEX
  8
0
  6
CONTINUOUS
 10
4.733520
 20
1.696640
  0
VERTEX
  8
0
  6
CONTINUOUS
 10
4.745400
 20
1.668480
  0
VERTEX
  8
0
  6
CONTINUOUS
 10
4.751560
 20
1.637680
  0
VERTEX
  8
0
  6
CONTINUOUS
 10
4.861560
 20
1.638120
  0
VERTEX
  8
0
  6
CONTINUOUS
 10
4.868160
 20
1.668480
  0
VERTEX
  8
0
  6
CONTINUOUS
 10
4.880040
 20
1.697080
  0
VERTEX
  8
0
  6
CONTINUOUS
 10
4.896320
 20
1.722600
  0
VERTEX
  8
0
  6
CONTINUOUS
 10
4.917000
 20
1.744600
  0
VERTEX
  8
0
  6
CONTINUOUS
 10
4.941640
 20
1.762640
  0
VERTEX
  8
0
  6
CONTINUOUS
 10
4.968920
 20
1.775840
  0
VERTEX
  8
0
  6
CONTINUOUS
 10
4.998840
 20
1.784640
  0
VERTEX
  8
0
  6
CONTINUOUS
 10
5.030520
 20
1.787720
  0
VERTEX
  8
0
  6
CONTINUOUS
 10
5.062200
 20
1.784640
  0
VERTEX
  8
0
  6
CONTINUOUS
 10
5.092120
 20
1.775840
  0
VERTEX
  8
0
  6
CONTINUOUS
 10
5.119400
 20
1.762640
  0
VERTEX
  8
0
  6
CONTINUOUS
 10
5.144040
 20
1.744160
  0
VERTEX
  8
0
  6
CONTINUOUS
 10
5.164720
 20
1.722160
  0
VERTEX
  8
0
  6
CONTINUOUS
 10
5.181000
 20
1.696640
  0
VERTEX
  8
0
  6
CONTINUOUS
 10
5.192880
 20
1.668480
  0
VERTEX
  8
0
  6
CONTINUOUS
 10
5.199480
 20
1.637680
  0
VERTEX
  8
0
  6
CONTINUOUS
 10
5.311240
 20
1.638120
  0
VERTEX
  8
0
  6
CONTINUOUS
 10
5.333680
 20
1.835680
  0
VERTEX
  8
0
  6
CONTINUOUS
 10
6.529600
 20
1.835680
  0
VERTEX
  8
0
  6
CONTINUOUS
 10
7.189600
 20
1.470480
  0
VERTEX
  8
0
  6
CONTINUOUS
 10
7.189600
 20
1.213520
  0
VERTEX
  8
0
  6
CONTINUOUS
 10
1.105720
 20
1.213520
  0
VERTEX
  8
0
  6
CONTINUOUS
 10
1.105720
 20
1.451560
  0
VERTEX
  8
0
  6
CONTINUOUS
 10
1.161160
 20
1.455960
  0
VERTEX
  8
0
  6
CONTINUOUS
 10
1.211760
 20
1.464760
  0
VERTEX
  8
0
  6
CONTINUOUS
 10
1.257520
 20
1.477960
  0
VERTEX
  8
0
  6
CONTINUOUS
 10
1.299320
 20
1.494680
  0
VERTEX
  8
0
  6
CONTINUOUS
 10
1.336280
 20
1.515360
  0
VERTEX
  8
0
  6
CONTINUOUS
 10
1.369720
 20
1.538240
  0
VERTEX
  8
0
  6
CONTINUOUS
 10
1.398760
 20
1.564200
  0
VERTEX
  8
0
  6
CONTINUOUS
 10
1.424720
 20
1.591480
  0
VERTEX
  8
0
  6
CONTINUOUS
 10
1.447160
 20
1.620960
  0
VERTEX
  8
0
  6
CONTINUOUS
 10
1.466080
 20
1.651320
  0
VERTEX
  8
0
  6
CONTINUOUS
 10
1.495120
 20
1.713360
  0
VERTEX
  8
0
  6
CONTINUOUS
 10
1.513600
 20
1.774080
  0
VERTEX
  8
0
  6
CONTINUOUS
 10
1.523280
 20
1.830400
  0
VERTEX
  8
0
  6
CONTINUOUS
 10
1.522840
 20
1.830400
  0
VERTEX
  8
0
  6
CONTINUOUS
 10
2.948000
 20
1.830400
  0
VERTEX
  8
0
  6
CONTINUOUS
 10
2.969120
 20
1.637680
  0
VERTEX
  8
0
  6
CONTINUOUS
 10
3.078240
 20
1.637680
  0
VERTEX
  8
0
  6
CONTINUOUS
 10
3.084840
 20
1.668480
  0
VERTEX
  8
0
  6
CONTINUOUS
 10
3.096720
 20
1.696640
  0
VERTEX
  8
0
  6
CONTINUOUS
 10
3.113440
 20
1.722160
  0
VERTEX
  8
0
  6
CONTINUOUS
 10
3.134120
 20
1.744160
  0
VERTEX
  8
0
  6
CONTINUOUS
 10
3.158320
 20
1.762200
  0
VERTEX
  8
0
  6
CONTINUOUS
 10
3.185600
 20
1.775840
  0
VERTEX
  8
0
  6
CONTINUOUS
 10
3.215520
 20
1.784200
  0
VERTEX
  8
0
  6
CONTINUOUS
 10
3.247200
 20
1.787280
  0
VERTEX
  8
0
  6
CONTINUOUS
 10
3.279320
 20
1.784200
  0
VERTEX
  8
0
  6
CONTINUOUS
 10
3.309240
 20
1.775840
  0
VERTEX
  8
0
  6
CONTINUOUS
 10
3.336520
 20
1.762200
  0
VERTEX
  8
0
  6
CONTINUOUS
 10
3.360720
 20
1.744160
  0
VERTEX
  8
0
  6
CONTINUOUS
 10
3.381400
 20
1.722160
  0
VERTEX
  8
0
  6
CONTINUOUS
 10
3.398120
 20
1.696640
  0
VERTEX
  8
0
  6
CONTINUOUS
 10
3.410000
 20
1.668040
  0
VERTEX
  8
0
  6
CONTINUOUS
 10
3.416160
 20
1.637680
  0
VERTEX
  8
0
  6
CONTINUOUS
 10
3.517800
 20
1.638120
  0
VERTEX
  8
0
  6
CONTINUOUS
 10
3.524400
 20
1.668480
  0
VERTEX
  8
0
  6
CONTINUOUS
 10
3.536280
 20
1.697080
  0
VERTEX
  8
0
  6
CONTINUOUS
 10
3.553000
 20
1.722600
  0
VERTEX
  8
0
  6
CONTINUOUS
 10
3.573680
 20
1.744600
  0
VERTEX
  8
0
  6
CONTINUOUS
 10
3.597880
 20
1.762640
  0
VERTEX
  8
0
  6
CONTINUOUS
 10
3.625160
 20
1.775840
  0
VERTEX
  8
0
  6
CONTINUOUS
 10
3.655080
 20
1.784640
  0
VERTEX
  8
0
  6
CONTINUOUS
 10
3.686760
 20
1.787720
  0
VERTEX
  8
0
  6
CONTINUOUS
 10
3.718880
 20
1.784640
  0
VERTEX
  8
0
  6
CONTINUOUS
 10
3.748800
 20
1.775840
  0
VERTEX
  8
0
  6
CONTINUOUS
 10
3.776080
 20
1.762640
  0
VERTEX
  8
0
  6
CONTINUOUS
 10
3.800280
 20
1.744160
  0
VERTEX
  8
0
  6
CONTINUOUS
 10
3.820960
 20
1.722160
  0
VERTEX
  8
0
  6
CONTINUOUS
 10
3.837240
 20
1.696640
  0
VERTEX
  8
0
  6
CONTINUOUS
 10
3.849120
 20
1.668480
  0
VERTEX
  8
0
  6
CONTINUOUS
 10
3.855720
 20
1.637680
  0
VERTEX
  8
0
  6
CONTINUOUS
 10
3.967480
 20
1.638120
  0
SEQEND
  8
0
  0
TEXT
  8
0
 10
3.852640
 20
0.926640
 40
0.138230
  1
BA  408
 41
1.000000
  7
SN0
 71
     0
 72
     5
 11
4.443185
 21
0.926640
  0
TEXT
  8
0
 10
3.637040
 20
0.734800
 40
0.138230
  1
5/8" X 6-1/16"
 41
1.000000
  7
SN0
 71
     0
 72
     5
 11
4.658108
 21
0.734800
  0
ENDSEC
  0
EOF
