  0
SECTION
  2
HEADER
  9
$ACADVER
  1
AC1006
  9
$EXTMIN
 10
5.443240
 20
0.555720
  9
$EXTMAX
 10
7.597920
 20
3.329920
  9
$LTSCALE
 40
0.044000
  9
$PDMODE
 70
    35
  9
$PDSIZE
 40
0.035200
  0
ENDSEC
  0
SECTION
  2
TABLES
  0
TABLE
  2
LTYPE
 70
     9
  0
LTYPE
  2
CONTINUOUS
 70
    64
  3
Solid line
 72
    65
 73
     0
 40
0.000000
  0
LTYPE
  2
DASHED
 70
    64
  3
__ __ __ __ __ __ __ __ __ __ __ __ __ __ __
 72
    65
 73
     2
 40
0.000330
 49
0.000220
 49
-0.000110
  0
LTYPE
  2
HIDDEN
 70
    64
  3
 _ _ _ _ _ _ _ _ _ _ _ _ _ _ _ _ _ _ _ _ _ _
 72
    65
 73
     2
 40
0.000165
 49
0.000110
 49
-0.000055
  0
LTYPE
  2
CENTER
 70
    64
  3
____ _ ____ _ ____ _ ____ _ ____ _ ____ _ ____
 72
    65
 73
     4
 40
0.000880
 49
0.000550
 49
-0.000110
 49
0.000110
 49
-0.000110
  0
LTYPE
  2
PHANTOM
 70
    64
  3
_____ _ _ _____ _ _ _____ _ _ _____ _ _ ____
 72
    65
 73
     6
 40
0.001100
 49
0.000550
 49
-0.000110
 49
0.000110
 49
-0.000110
 49
0.000110
 49
-0.000110
  0
LTYPE
  2
DOT
 70
    64
  3
...............................................
 72
    65
 73
     2
 40
0.000110
 49
0.000000
 49
-0.000110
  0
LTYPE
  2
DASHDOT
 70
    64
  3
__ . __ . __ . __ . __ . __ . __ . __ . __ . __
 72
    65
 73
     4
 40
0.000440
 49
0.000220
 49
-0.000110
 49
0.000000
 49
-0.000110
  0
LTYPE
  2
BORDER
 70
    64
  3
__ __ . __ __ . __ __ . __ __ . __ __ . __ __
 72
    65
 73
     6
 40
0.000770
 49
0.000220
 49
-0.000110
 49
0.000220
 49
-0.000110
 49
0.000000
 49
-0.000110
  0
LTYPE
  2
DIVIDE
 70
    64
  3
__ . . __ . . __ . . __ . . __ . . __ . . __
 72
    65
 73
     6
 40
0.000550
 49
0.000220
 49
-0.000110
 49
0.000000
 49
-0.000110
 49
0.000000
 49
-0.000110
  0
LTYPE
  2
DOTDOT
 70
    64
  3
 . .  . .  . .  . .  . .  . . 
 72
    65
 73
     5
 40
0.000242
 49
-0.000110
 49
0.000000
 49
-0.000110
 49
0.000000
 49
-0.000110
  0
ENDTAB
  0
TABLE
  2
STYLE
 70
     2
  0
STYLE
 70
     0
  2
SN0
 40
0.000000
 41
0.000440
 50
0.000000
 71
     0
 42
0.000000
  3
ROMAND
  0
STYLE
 70
    68
  2
SV0
 40
0.000000
 41
0.000440
 50
0.000000
 71
     0
 42
0.000000
  3
ROMAND
  0
ENDTAB
  0
TABLE
  2
LAYER
 70
     3
  0
LAYER
  2
FOREGROUND
 70
    64
 62
     7
  6
CONTINUOUS
  0
LAYER
  2
BACKGROUND
 70
    65
 62
    -7
  6
CONTINUOUS
  0
LAYER
  2
0
 70
    64
 62
     7
  6
CONTINUOUS
  0
ENDTAB
  0
ENDSEC
  0
SECTION
  2
ENTITIES
  0
POLYLINE
  8
FOREGROUND
  6
CONTINUOUS
 66
     1
 40
0.000000
 41
0.000000
  0
VERTEX
  8
FOREGROUND
  6
CONTINUOUS
 10
0.000000
 20
3.885640
  0
VERTEX
  8
FOREGROUND
  6
CONTINUOUS
 10
8.499920
 20
3.885640
  0
VERTEX
  8
FOREGROUND
  6
CONTINUOUS
 10
8.499920
 20
-7.114360
  0
VERTEX
  8
FOREGROUND
  6
CONTINUOUS
 10
0.000000
 20
-7.114360
  0
VERTEX
  8
FOREGROUND
  6
CONTINUOUS
 10
0.000000
 20
3.885640
  0
SEQEND
  8
0
  0
SOLID
  8
0
 62
     7
 10
6.676120
 20
1.351680
 11
7.312800
 21
1.727440
 12
6.715280
 22
1.323520
 13
7.351960
 23
1.699280
  0
POLYLINE
  8
0
  6
CONTINUOUS
 66
     1
 40
0.000000
 41
0.000000
  0
VERTEX
  8
0
  6
CONTINUOUS
 10
6.676120
 20
1.351680
  0
VERTEX
  8
0
  6
CONTINUOUS
 10
7.312800
 20
1.727440
  0
VERTEX
  8
0
  6
CONTINUOUS
 10
7.351960
 20
1.699280
  0
VERTEX
  8
0
  6
CONTINUOUS
 10
6.715280
 20
1.323520
  0
VERTEX
  8
0
  6
CONTINUOUS
 10
6.676120
 20
1.351680
  0
SEQEND
  8
0
  0
SOLID
  8
0
 62
    15
 10
6.303880
 20
1.535600
 11
6.940560
 21
1.911360
 12
6.364160
 22
1.530320
 13
7.000840
 23
1.906080
  0
POLYLINE
  8
0
  6
CONTINUOUS
 66
     1
 40
0.000000
 41
0.000000
  0
VERTEX
  8
0
  6
CONTINUOUS
 10
6.303880
 20
1.535600
  0
VERTEX
  8
0
  6
CONTINUOUS
 10
6.940560
 20
1.911360
  0
VERTEX
  8
0
  6
CONTINUOUS
 10
7.000840
 20
1.906080
  0
VERTEX
  8
0
  6
CONTINUOUS
 10
6.364160
 20
1.530320
  0
VERTEX
  8
0
  6
CONTINUOUS
 10
6.303880
 20
1.535600
  0
SEQEND
  8
0
  0
SOLID
  8
0
 62
    15
 10
6.364160
 20
1.530320
 11
7.000840
 21
1.906080
 12
6.418720
 22
1.520640
 13
7.055400
 23
1.896400
  0
POLYLINE
  8
0
  6
CONTINUOUS
 66
     1
 40
0.000000
 41
0.000000
  0
VERTEX
  8
0
  6
CONTINUOUS
 10
6.364160
 20
1.530320
  0
VERTEX
  8
0
  6
CONTINUOUS
 10
7.000840
 20
1.906080
  0
VERTEX
  8
0
  6
CONTINUOUS
 10
7.055400
 20
1.896400
  0
VERTEX
  8
0
  6
CONTINUOUS
 10
6.418720
 20
1.520640
  0
VERTEX
  8
0
  6
CONTINUOUS
 10
6.364160
 20
1.530320
  0
SEQEND
  8
0
  0
SOLID
  8
0
 62
    15
 10
6.418720
 20
1.520640
 11
7.055400
 21
1.896400
 12
6.467560
 22
1.507440
 13
7.104240
 23
1.883200
  0
POLYLINE
  8
0
  6
CONTINUOUS
 66
     1
 40
0.000000
 41
0.000000
  0
VERTEX
  8
0
  6
CONTINUOUS
 10
6.418720
 20
1.520640
  0
VERTEX
  8
0
  6
CONTINUOUS
 10
7.055400
 20
1.896400
  0
VERTEX
  8
0
  6
CONTINUOUS
 10
7.104240
 20
1.883200
  0
VERTEX
  8
0
  6
CONTINUOUS
 10
6.467560
 20
1.507440
  0
VERTEX
  8
0
  6
CONTINUOUS
 10
6.418720
 20
1.520640
  0
SEQEND
  8
0
  0
SOLID
  8
0
 62
    15
 10
6.467560
 20
1.507440
 11
7.104240
 21
1.883200
 12
6.511120
 22
1.490280
 13
7.147800
 23
1.866040
  0
POLYLINE
  8
0
  6
CONTINUOUS
 66
     1
 40
0.000000
 41
0.000000
  0
VERTEX
  8
0
  6
CONTINUOUS
 10
6.467560
 20
1.507440
  0
VERTEX
  8
0
  6
CONTINUOUS
 10
7.104240
 20
1.883200
  0
VERTEX
  8
0
  6
CONTINUOUS
 10
7.147800
 20
1.866040
  0
VERTEX
  8
0
  6
CONTINUOUS
 10
6.511120
 20
1.490280
  0
VERTEX
  8
0
  6
CONTINUOUS
 10
6.467560
 20
1.507440
  0
SEQEND
  8
0
  0
SOLID
  8
0
 62
     7
 10
6.511120
 20
1.490280
 11
7.147800
 21
1.866040
 12
6.549400
 22
1.468720
 13
7.186080
 23
1.844480
  0
POLYLINE
  8
0
  6
CONTINUOUS
 66
     1
 40
0.000000
 41
0.000000
  0
VERTEX
  8
0
  6
CONTINUOUS
 10
6.511120
 20
1.490280
  0
VERTEX
  8
0
  6
CONTINUOUS
 10
7.147800
 20
1.866040
  0
VERTEX
  8
0
  6
CONTINUOUS
 10
7.186080
 20
1.844480
  0
VERTEX
  8
0
  6
CONTINUOUS
 10
6.549400
 20
1.468720
  0
VERTEX
  8
0
  6
CONTINUOUS
 10
6.511120
 20
1.490280
  0
SEQEND
  8
0
  0
SOLID
  8
0
 62
     7
 10
6.549400
 20
1.468720
 11
7.186080
 21
1.844480
 12
6.583280
 22
1.443200
 13
7.219520
 23
1.818960
  0
POLYLINE
  8
0
  6
CONTINUOUS
 66
     1
 40
0.000000
 41
0.000000
  0
VERTEX
  8
0
  6
CONTINUOUS
 10
6.549400
 20
1.468720
  0
VERTEX
  8
0
  6
CONTINUOUS
 10
7.186080
 20
1.844480
  0
VERTEX
  8
0
  6
CONTINUOUS
 10
7.219520
 20
1.818960
  0
VERTEX
  8
0
  6
CONTINUOUS
 10
6.583280
 20
1.443200
  0
VERTEX
  8
0
  6
CONTINUOUS
 10
6.549400
 20
1.468720
  0
SEQEND
  8
0
  0
SOLID
  8
0
 62
     7
 10
6.583280
 20
1.443200
 11
7.219520
 21
1.818960
 12
6.612320
 22
1.413720
 13
7.248560
 23
1.789480
  0
POLYLINE
  8
0
  6
CONTINUOUS
 66
     1
 40
0.000000
 41
0.000000
  0
VERTEX
  8
0
  6
CONTINUOUS
 10
6.583280
 20
1.443200
  0
VERTEX
  8
0
  6
CONTINUOUS
 10
7.219520
 20
1.818960
  0
VERTEX
  8
0
  6
CONTINUOUS
 10
7.248560
 20
1.789480
  0
VERTEX
  8
0
  6
CONTINUOUS
 10
6.612320
 20
1.413720
  0
VERTEX
  8
0
  6
CONTINUOUS
 10
6.583280
 20
1.443200
  0
SEQEND
  8
0
  0
SOLID
  8
0
 62
     7
 10
6.612320
 20
1.413720
 11
7.248560
 21
1.789480
 12
6.641800
 22
1.382040
 13
7.278480
 23
1.757800
  0
POLYLINE
  8
0
  6
CONTINUOUS
 66
     1
 40
0.000000
 41
0.000000
  0
VERTEX
  8
0
  6
CONTINUOUS
 10
6.612320
 20
1.413720
  0
VERTEX
  8
0
  6
CONTINUOUS
 10
7.248560
 20
1.789480
  0
VERTEX
  8
0
  6
CONTINUOUS
 10
7.278480
 20
1.757800
  0
VERTEX
  8
0
  6
CONTINUOUS
 10
6.641800
 20
1.382040
  0
VERTEX
  8
0
  6
CONTINUOUS
 10
6.612320
 20
1.413720
  0
SEQEND
  8
0
  0
SOLID
  8
0
 62
     7
 10
6.641800
 20
1.382040
 11
7.278480
 21
1.757800
 12
6.676120
 22
1.351680
 13
7.312800
 23
1.727440
  0
POLYLINE
  8
0
  6
CONTINUOUS
 66
     1
 40
0.000000
 41
0.000000
  0
VERTEX
  8
0
  6
CONTINUOUS
 10
6.641800
 20
1.382040
  0
VERTEX
  8
0
  6
CONTINUOUS
 10
7.278480
 20
1.757800
  0
VERTEX
  8
0
  6
CONTINUOUS
 10
7.312800
 20
1.727440
  0
VERTEX
  8
0
  6
CONTINUOUS
 10
6.676120
 20
1.351680
  0
VERTEX
  8
0
  6
CONTINUOUS
 10
6.641800
 20
1.382040
  0
SEQEND
  8
0
  0
SOLID
  8
0
 62
    15
 10
6.237440
 20
1.537360
 11
6.873680
 21
1.913120
 12
6.303880
 22
1.535600
 13
6.940560
 23
1.911360
  0
POLYLINE
  8
0
  6
CONTINUOUS
 66
     1
 40
0.000000
 41
0.000000
  0
VERTEX
  8
0
  6
CONTINUOUS
 10
6.237440
 20
1.537360
  0
VERTEX
  8
0
  6
CONTINUOUS
 10
6.873680
 20
1.913120
  0
VERTEX
  8
0
  6
CONTINUOUS
 10
6.940560
 20
1.911360
  0
VERTEX
  8
0
  6
CONTINUOUS
 10
6.303880
 20
1.535600
  0
VERTEX
  8
0
  6
CONTINUOUS
 10
6.237440
 20
1.537360
  0
SEQEND
  8
0
  0
SOLID
  8
0
 62
     7
 10
6.715280
 20
1.323520
 11
7.351960
 21
1.699280
 12
6.758400
 22
1.297560
 13
7.395080
 23
1.673320
  0
POLYLINE
  8
0
  6
CONTINUOUS
 66
     1
 40
0.000000
 41
0.000000
  0
VERTEX
  8
0
  6
CONTINUOUS
 10
6.715280
 20
1.323520
  0
VERTEX
  8
0
  6
CONTINUOUS
 10
7.351960
 20
1.699280
  0
VERTEX
  8
0
  6
CONTINUOUS
 10
7.395080
 20
1.673320
  0
VERTEX
  8
0
  6
CONTINUOUS
 10
6.758400
 20
1.297560
  0
VERTEX
  8
0
  6
CONTINUOUS
 10
6.715280
 20
1.323520
  0
SEQEND
  8
0
  0
SOLID
  8
0
 62
    15
 10
6.758400
 20
1.297560
 11
7.395080
 21
1.673320
 12
6.805040
 22
1.275120
 13
7.441720
 23
1.650880
  0
POLYLINE
  8
0
  6
CONTINUOUS
 66
     1
 40
0.000000
 41
0.000000
  0
VERTEX
  8
0
  6
CONTINUOUS
 10
6.758400
 20
1.297560
  0
VERTEX
  8
0
  6
CONTINUOUS
 10
7.395080
 20
1.673320
  0
VERTEX
  8
0
  6
CONTINUOUS
 10
7.441720
 20
1.650880
  0
VERTEX
  8
0
  6
CONTINUOUS
 10
6.805040
 20
1.275120
  0
VERTEX
  8
0
  6
CONTINUOUS
 10
6.758400
 20
1.297560
  0
SEQEND
  8
0
  0
SOLID
  8
0
 62
    15
 10
6.805040
 20
1.275120
 11
7.441720
 21
1.650880
 12
6.854760
 22
1.257520
 13
7.491440
 23
1.633280
  0
POLYLINE
  8
0
  6
CONTINUOUS
 66
     1
 40
0.000000
 41
0.000000
  0
VERTEX
  8
0
  6
CONTINUOUS
 10
6.805040
 20
1.275120
  0
VERTEX
  8
0
  6
CONTINUOUS
 10
7.441720
 20
1.650880
  0
VERTEX
  8
0
  6
CONTINUOUS
 10
7.491440
 20
1.633280
  0
VERTEX
  8
0
  6
CONTINUOUS
 10
6.854760
 20
1.257520
  0
VERTEX
  8
0
  6
CONTINUOUS
 10
6.805040
 20
1.275120
  0
SEQEND
  8
0
  0
SOLID
  8
0
 62
    15
 10
6.854760
 20
1.257520
 11
7.491440
 21
1.633280
 12
6.906680
 22
1.244320
 13
7.543360
 23
1.620080
  0
POLYLINE
  8
0
  6
CONTINUOUS
 66
     1
 40
0.000000
 41
0.000000
  0
VERTEX
  8
0
  6
CONTINUOUS
 10
6.854760
 20
1.257520
  0
VERTEX
  8
0
  6
CONTINUOUS
 10
7.491440
 20
1.633280
  0
VERTEX
  8
0
  6
CONTINUOUS
 10
7.543360
 20
1.620080
  0
VERTEX
  8
0
  6
CONTINUOUS
 10
6.906680
 20
1.244320
  0
VERTEX
  8
0
  6
CONTINUOUS
 10
6.854760
 20
1.257520
  0
SEQEND
  8
0
  0
SOLID
  8
0
 62
    15
 10
6.906680
 20
1.244320
 11
7.543360
 21
1.620080
 12
6.961240
 22
1.237720
 13
7.597480
 23
1.613480
  0
POLYLINE
  8
0
  6
CONTINUOUS
 66
     1
 40
0.000000
 41
0.000000
  0
VERTEX
  8
0
  6
CONTINUOUS
 10
6.906680
 20
1.244320
  0
VERTEX
  8
0
  6
CONTINUOUS
 10
7.543360
 20
1.620080
  0
VERTEX
  8
0
  6
CONTINUOUS
 10
7.597480
 20
1.613480
  0
VERTEX
  8
0
  6
CONTINUOUS
 10
6.961240
 20
1.237720
  0
VERTEX
  8
0
  6
CONTINUOUS
 10
6.906680
 20
1.244320
  0
SEQEND
  8
0
  0
SOLID
  8
0
 62
    15
 10
6.961240
 20
1.237720
 11
7.597480
 21
1.613480
 12
6.961240
 22
1.012880
 13
7.597480
 23
1.388640
  0
POLYLINE
  8
0
  6
CONTINUOUS
 66
     1
 40
0.000000
 41
0.000000
  0
VERTEX
  8
0
  6
CONTINUOUS
 10
6.961240
 20
1.237720
  0
VERTEX
  8
0
  6
CONTINUOUS
 10
7.597480
 20
1.613480
  0
VERTEX
  8
0
  6
CONTINUOUS
 10
7.597480
 20
1.388640
  0
VERTEX
  8
0
  6
CONTINUOUS
 10
6.961240
 20
1.012880
  0
VERTEX
  8
0
  6
CONTINUOUS
 10
6.961240
 20
1.237720
  0
SEQEND
  8
0
  0
SOLID
  8
0
 62
    15
 10
5.458200
 20
1.772320
 11
6.094880
 21
2.148080
 12
6.217640
 22
1.772320
 13
6.854320
 23
2.148080
  0
POLYLINE
  8
0
  6
CONTINUOUS
 66
     1
 40
0.000000
 41
0.000000
  0
VERTEX
  8
0
  6
CONTINUOUS
 10
5.458200
 20
1.772320
  0
VERTEX
  8
0
  6
CONTINUOUS
 10
6.094880
 20
2.148080
  0
VERTEX
  8
0
  6
CONTINUOUS
 10
6.854320
 20
2.148080
  0
VERTEX
  8
0
  6
CONTINUOUS
 10
6.217640
 20
1.772320
  0
VERTEX
  8
0
  6
CONTINUOUS
 10
5.458200
 20
1.772320
  0
SEQEND
  8
0
  0
SOLID
  8
0
 62
     7
 10
6.217640
 20
1.772320
 11
6.854320
 21
2.148080
 12
6.227320
 22
1.654840
 13
6.864000
 23
2.030600
  0
POLYLINE
  8
0
  6
CONTINUOUS
 66
     1
 40
0.000000
 41
0.000000
  0
VERTEX
  8
0
  6
CONTINUOUS
 10
6.217640
 20
1.772320
  0
VERTEX
  8
0
  6
CONTINUOUS
 10
6.854320
 20
2.148080
  0
VERTEX
  8
0
  6
CONTINUOUS
 10
6.864000
 20
2.030600
  0
VERTEX
  8
0
  6
CONTINUOUS
 10
6.227320
 20
1.654840
  0
VERTEX
  8
0
  6
CONTINUOUS
 10
6.217640
 20
1.772320
  0
SEQEND
  8
0
  0
SOLID
  8
0
 62
     7
 10
6.227320
 20
1.654840
 11
6.864000
 21
2.030600
 12
6.237440
 22
1.537360
 13
6.873680
 23
1.913120
  0
POLYLINE
  8
0
  6
CONTINUOUS
 66
     1
 40
0.000000
 41
0.000000
  0
VERTEX
  8
0
  6
CONTINUOUS
 10
6.227320
 20
1.654840
  0
VERTEX
  8
0
  6
CONTINUOUS
 10
6.864000
 20
2.030600
  0
VERTEX
  8
0
  6
CONTINUOUS
 10
6.873680
 20
1.913120
  0
VERTEX
  8
0
  6
CONTINUOUS
 10
6.237440
 20
1.537360
  0
VERTEX
  8
0
  6
CONTINUOUS
 10
6.227320
 20
1.654840
  0
SEQEND
  8
0
  0
POLYLINE
  8
0
  6
CONTINUOUS
 66
     1
 40
0.000000
 41
0.000000
  0
VERTEX
  8
0
  6
CONTINUOUS
 10
6.237440
 20
1.537360
  0
VERTEX
  8
0
  6
CONTINUOUS
 10
6.303880
 20
1.535600
  0
VERTEX
  8
0
  6
CONTINUOUS
 10
6.364160
 20
1.530320
  0
VERTEX
  8
0
  6
CONTINUOUS
 10
6.418720
 20
1.520640
  0
VERTEX
  8
0
  6
CONTINUOUS
 10
6.467560
 20
1.507440
  0
VERTEX
  8
0
  6
CONTINUOUS
 10
6.511120
 20
1.490280
  0
VERTEX
  8
0
  6
CONTINUOUS
 10
6.549400
 20
1.468720
  0
VERTEX
  8
0
  6
CONTINUOUS
 10
6.583280
 20
1.443200
  0
VERTEX
  8
0
  6
CONTINUOUS
 10
6.612320
 20
1.413720
  0
VERTEX
  8
0
  6
CONTINUOUS
 10
6.641800
 20
1.382040
  0
VERTEX
  8
0
  6
CONTINUOUS
 10
6.676120
 20
1.351680
  0
VERTEX
  8
0
  6
CONTINUOUS
 10
6.715280
 20
1.323520
  0
VERTEX
  8
0
  6
CONTINUOUS
 10
6.758400
 20
1.297560
  0
VERTEX
  8
0
  6
CONTINUOUS
 10
6.805040
 20
1.275120
  0
VERTEX
  8
0
  6
CONTINUOUS
 10
6.854760
 20
1.257520
  0
VERTEX
  8
0
  6
CONTINUOUS
 10
6.906680
 20
1.244320
  0
VERTEX
  8
0
  6
CONTINUOUS
 10
6.961240
 20
1.237720
  0
VERTEX
  8
0
  6
CONTINUOUS
 10
6.961240
 20
1.012880
  0
VERTEX
  8
0
  6
CONTINUOUS
 10
5.458200
 20
1.012880
  0
VERTEX
  8
0
  6
CONTINUOUS
 10
5.458200
 20
1.772320
  0
VERTEX
  8
0
  6
CONTINUOUS
 10
6.217640
 20
1.772320
  0
VERTEX
  8
0
  6
CONTINUOUS
 10
6.227320
 20
1.654840
  0
VERTEX
  8
0
  6
CONTINUOUS
 10
6.237440
 20
1.537360
  0
SEQEND
  8
0
  0
TEXT
  8
0
 10
6.231280
 20
0.790240
 40
0.138091
  1
BA  394
 41
1.000000
  7
SN0
 71
     0
 72
     5
 11
6.820659
 21
0.790240
  0
TEXT
  8
0
 10
6.061880
 20
0.598840
 40
0.138091
  1
3/4" X 1-1/2"
 41
1.000000
  7
SN0
 71
     0
 72
     5
 11
6.988879
 21
0.598840
  0
POLYLINE
  8
0
  6
CONTINUOUS
 66
     1
 40
0.014080
 41
0.014080
  0
VERTEX
  8
0
  6
CONTINUOUS
 10
6.230400
 20
3.087480
  0
VERTEX
  8
0
  6
CONTINUOUS
 10
6.264280
 20
3.087040
  0
VERTEX
  8
0
  6
CONTINUOUS
 10
6.296840
 20
3.085720
  0
VERTEX
  8
0
  6
CONTINUOUS
 10
6.327640
 20
3.083520
  0
VERTEX
  8
0
  6
CONTINUOUS
 10
6.357120
 20
3.080000
  0
VERTEX
  8
0
  6
CONTINUOUS
 10
6.385280
 20
3.076040
  0
VERTEX
  8
0
  6
CONTINUOUS
 10
6.411680
 20
3.070760
  0
VERTEX
  8
0
  6
CONTINUOUS
 10
6.436760
 20
3.064600
  0
VERTEX
  8
0
  6
CONTINUOUS
 10
6.460520
 20
3.057560
  0
VERTEX
  8
0
  6
CONTINUOUS
 10
6.482960
 20
3.049200
  0
VERTEX
  8
0
  6
CONTINUOUS
 10
6.504080
 20
3.040400
  0
VERTEX
  8
0
  6
CONTINUOUS
 10
6.523880
 20
3.030280
  0
VERTEX
  8
0
  6
CONTINUOUS
 10
6.542360
 20
3.018840
  0
VERTEX
  8
0
  6
CONTINUOUS
 10
6.559960
 20
3.006960
  0
VERTEX
  8
0
  6
CONTINUOUS
 10
6.576240
 20
2.993320
  0
VERTEX
  8
0
  6
CONTINUOUS
 10
6.591200
 20
2.979240
  0
VERTEX
  8
0
  6
CONTINUOUS
 10
6.605280
 20
2.963840
  0
VERTEX
  8
0
  6
CONTINUOUS
 10
6.619360
 20
2.948000
  0
VERTEX
  8
0
  6
CONTINUOUS
 10
6.634760
 20
2.932160
  0
VERTEX
  8
0
  6
CONTINUOUS
 10
6.651480
 20
2.916760
  0
VERTEX
  8
0
  6
CONTINUOUS
 10
6.669520
 20
2.901800
  0
VERTEX
  8
0
  6
CONTINUOUS
 10
6.688440
 20
2.887280
  0
VERTEX
  8
0
  6
CONTINUOUS
 10
6.708240
 20
2.873200
  0
VERTEX
  8
0
  6
CONTINUOUS
 10
6.729360
 20
2.860000
  0
VERTEX
  8
0
  6
CONTINUOUS
 10
6.751360
 20
2.847680
  0
VERTEX
  8
0
  6
CONTINUOUS
 10
6.774240
 20
2.835800
  0
VERTEX
  8
0
  6
CONTINUOUS
 10
6.798000
 20
2.825240
  0
VERTEX
  8
0
  6
CONTINUOUS
 10
6.822640
 20
2.816000
  0
VERTEX
  8
0
  6
CONTINUOUS
 10
6.847720
 20
2.807640
  0
VERTEX
  8
0
  6
CONTINUOUS
 10
6.873240
 20
2.800600
  0
VERTEX
  8
0
  6
CONTINUOUS
 10
6.899640
 20
2.794880
  0
VERTEX
  8
0
  6
CONTINUOUS
 10
6.926480
 20
2.790480
  0
VERTEX
  8
0
  6
CONTINUOUS
 10
6.953760
 20
2.787840
  0
VERTEX
  8
0
  6
CONTINUOUS
 10
6.953760
 20
2.563000
  0
VERTEX
  8
0
  6
CONTINUOUS
 10
5.451160
 20
2.563000
  0
VERTEX
  8
0
  6
CONTINUOUS
 10
5.451160
 20
3.322440
  0
VERTEX
  8
0
  6
CONTINUOUS
 10
6.210600
 20
3.322440
  0
VERTEX
  8
0
  6
CONTINUOUS
 10
6.230400
 20
3.087480
  0
SEQEND
  8
0
  0
TEXT
  8
0
 10
5.785560
 20
2.838440
 40
0.138091
  1
BA  394
 41
1.000000
  7
SN0
 71
     0
 72
     5
 11
6.374939
 21
2.838440
  0
TEXT
  8
0
 10
5.616160
 20
2.647040
 40
0.138091
  1
3/4" X 1-1/2"
 41
1.000000
  7
SN0
 71
     0
 72
     5
 11
6.543159
 21
2.647040
  0
ENDSEC
  0
EOF
