  0
SECTION
  2
HEADER
  9
$ACADVER
  1
AC1006
  9
$EXTMIN
 10
2.656280
 20
0.427680
  9
$EXTMAX
 10
7.650720
 20
3.759800
  9
$LTSCALE
 40
0.044000
  9
$PDMODE
 70
    35
  9
$PDSIZE
 40
0.035200
  0
ENDSEC
  0
SECTION
  2
TABLES
  0
TABLE
  2
LTYPE
 70
     9
  0
LTYPE
  2
CONTINUOUS
 70
    64
  3
Solid line
 72
    65
 73
     0
 40
0.000000
  0
LTYPE
  2
DASHED
 70
    64
  3
__ __ __ __ __ __ __ __ __ __ __ __ __ __ __
 72
    65
 73
     2
 40
0.000330
 49
0.000220
 49
-0.000110
  0
LTYPE
  2
HIDDEN
 70
    64
  3
 _ _ _ _ _ _ _ _ _ _ _ _ _ _ _ _ _ _ _ _ _ _
 72
    65
 73
     2
 40
0.000165
 49
0.000110
 49
-0.000055
  0
LTYPE
  2
CENTER
 70
    64
  3
____ _ ____ _ ____ _ ____ _ ____ _ ____ _ ____
 72
    65
 73
     4
 40
0.000880
 49
0.000550
 49
-0.000110
 49
0.000110
 49
-0.000110
  0
LTYPE
  2
PHANTOM
 70
    64
  3
_____ _ _ _____ _ _ _____ _ _ _____ _ _ ____
 72
    65
 73
     6
 40
0.001100
 49
0.000550
 49
-0.000110
 49
0.000110
 49
-0.000110
 49
0.000110
 49
-0.000110
  0
LTYPE
  2
DOT
 70
    64
  3
...............................................
 72
    65
 73
     2
 40
0.000110
 49
0.000000
 49
-0.000110
  0
LTYPE
  2
DASHDOT
 70
    64
  3
__ . __ . __ . __ . __ . __ . __ . __ . __ . __
 72
    65
 73
     4
 40
0.000440
 49
0.000220
 49
-0.000110
 49
0.000000
 49
-0.000110
  0
LTYPE
  2
BORDER
 70
    64
  3
__ __ . __ __ . __ __ . __ __ . __ __ . __ __
 72
    65
 73
     6
 40
0.000770
 49
0.000220
 49
-0.000110
 49
0.000220
 49
-0.000110
 49
0.000000
 49
-0.000110
  0
LTYPE
  2
DIVIDE
 70
    64
  3
__ . . __ . . __ . . __ . . __ . . __ . . __
 72
    65
 73
     6
 40
0.000550
 49
0.000220
 49
-0.000110
 49
0.000000
 49
-0.000110
 49
0.000000
 49
-0.000110
  0
LTYPE
  2
DOTDOT
 70
    64
  3
 . .  . .  . .  . .  . .  . . 
 72
    65
 73
     5
 40
0.000242
 49
-0.000110
 49
0.000000
 49
-0.000110
 49
0.000000
 49
-0.000110
  0
ENDTAB
  0
TABLE
  2
STYLE
 70
     2
  0
STYLE
 70
     0
  2
SN0
 40
0.000000
 41
0.000440
 50
0.000000
 71
     0
 42
0.000000
  3
ROMAND
  0
STYLE
 70
    68
  2
SV0
 40
0.000000
 41
0.000440
 50
0.000000
 71
     0
 42
0.000000
  3
ROMAND
  0
ENDTAB
  0
TABLE
  2
LAYER
 70
     3
  0
LAYER
  2
FOREGROUND
 70
    64
 62
     7
  6
CONTINUOUS
  0
LAYER
  2
BACKGROUND
 70
    65
 62
    -7
  6
CONTINUOUS
  0
LAYER
  2
0
 70
    64
 62
     7
  6
CONTINUOUS
  0
ENDTAB
  0
ENDSEC
  0
SECTION
  2
ENTITIES
  0
POLYLINE
  8
FOREGROUND
  6
CONTINUOUS
 66
     1
 40
0.000000
 41
0.000000
  0
VERTEX
  8
FOREGROUND
  6
CONTINUOUS
 10
0.000000
 20
4.187480
  0
VERTEX
  8
FOREGROUND
  6
CONTINUOUS
 10
8.499920
 20
4.187480
  0
VERTEX
  8
FOREGROUND
  6
CONTINUOUS
 10
8.499920
 20
-6.812520
  0
VERTEX
  8
FOREGROUND
  6
CONTINUOUS
 10
0.000000
 20
-6.812520
  0
VERTEX
  8
FOREGROUND
  6
CONTINUOUS
 10
0.000000
 20
4.187480
  0
SEQEND
  8
0
  0
POLYLINE
  8
0
  6
CONTINUOUS
 66
     1
 40
0.014080
 41
0.014080
  0
VERTEX
  8
0
  6
CONTINUOUS
 10
3.410000
 20
3.669160
  0
VERTEX
  8
0
  6
CONTINUOUS
 10
3.464120
 20
3.668720
  0
VERTEX
  8
0
  6
CONTINUOUS
 10
3.533640
 20
3.664320
  0
VERTEX
  8
0
  6
CONTINUOUS
 10
3.573240
 20
3.659480
  0
VERTEX
  8
0
  6
CONTINUOUS
 10
3.608880
 20
3.651560
  0
VERTEX
  8
0
  6
CONTINUOUS
 10
3.641000
 20
3.641000
  0
VERTEX
  8
0
  6
CONTINUOUS
 10
3.670040
 20
3.627800
  0
VERTEX
  8
0
  6
CONTINUOUS
 10
3.696880
 20
3.610640
  0
VERTEX
  8
0
  6
CONTINUOUS
 10
3.763320
 20
3.560040
  0
VERTEX
  8
0
  6
CONTINUOUS
 10
3.805120
 20
3.533640
  0
VERTEX
  8
0
  6
CONTINUOUS
 10
3.834600
 20
3.518680
  0
VERTEX
  8
0
  6
CONTINUOUS
 10
3.880800
 20
3.502400
  0
VERTEX
  8
0
  6
CONTINUOUS
 10
3.913360
 20
3.495800
  0
VERTEX
  8
0
  6
CONTINUOUS
 10
3.946800
 20
3.493600
  0
VERTEX
  8
0
  6
CONTINUOUS
 10
4.224000
 20
3.493600
  0
VERTEX
  8
0
  6
CONTINUOUS
 10
4.224000
 20
3.439040
  0
VERTEX
  8
0
  6
CONTINUOUS
 10
6.480760
 20
3.439040
  0
VERTEX
  8
0
  6
CONTINUOUS
 10
6.480760
 20
3.374800
  0
VERTEX
  8
0
  6
CONTINUOUS
 10
6.499240
 20
3.376120
  0
VERTEX
  8
0
  6
CONTINUOUS
 10
6.534440
 20
3.376120
  0
VERTEX
  8
0
  6
CONTINUOUS
 10
6.582840
 20
3.371280
  0
VERTEX
  8
0
  6
CONTINUOUS
 10
6.612320
 20
3.365120
  0
VERTEX
  8
0
  6
CONTINUOUS
 10
6.639600
 20
3.357200
  0
VERTEX
  8
0
  6
CONTINUOUS
 10
6.665560
 20
3.347960
  0
VERTEX
  8
0
  6
CONTINUOUS
 10
6.712200
 20
3.325960
  0
VERTEX
  8
0
  6
CONTINUOUS
 10
6.810760
 20
3.268320
  0
VERTEX
  8
0
  6
CONTINUOUS
 10
6.846400
 20
3.251160
  0
VERTEX
  8
0
  6
CONTINUOUS
 10
6.900080
 20
3.235760
  0
VERTEX
  8
0
  6
CONTINUOUS
 10
6.998200
 20
3.213320
  0
VERTEX
  8
0
  6
CONTINUOUS
 10
7.065080
 20
3.202320
  0
VERTEX
  8
0
  6
CONTINUOUS
 10
7.139880
 20
3.194840
  0
VERTEX
  8
0
  6
CONTINUOUS
 10
7.223920
 20
3.192200
  0
VERTEX
  8
0
  6
CONTINUOUS
 10
7.223920
 20
2.959000
  0
VERTEX
  8
0
  6
CONTINUOUS
 10
2.664200
 20
2.959000
  0
VERTEX
  8
0
  6
CONTINUOUS
 10
2.664200
 20
3.751880
  0
VERTEX
  8
0
  6
CONTINUOUS
 10
3.408680
 20
3.751880
  0
VERTEX
  8
0
  6
CONTINUOUS
 10
3.408680
 20
3.669160
  0
VERTEX
  8
0
  6
CONTINUOUS
 10
3.410000
 20
3.669160
  0
SEQEND
  8
0
  0
SOLID
  8
0
 62
    15
 10
6.906680
 20
1.357400
 11
6.907120
 21
2.093960
 12
6.977080
 22
1.357840
 13
6.977520
 23
2.093960
  0
POLYLINE
  8
0
  6
CONTINUOUS
 66
     1
 40
0.000000
 41
0.000000
  0
VERTEX
  8
0
  6
CONTINUOUS
 10
6.906680
 20
1.357400
  0
VERTEX
  8
0
  6
CONTINUOUS
 10
6.907120
 20
2.093960
  0
VERTEX
  8
0
  6
CONTINUOUS
 10
6.977520
 20
2.093960
  0
VERTEX
  8
0
  6
CONTINUOUS
 10
6.977080
 20
1.357840
  0
VERTEX
  8
0
  6
CONTINUOUS
 10
6.906680
 20
1.357400
  0
SEQEND
  8
0
  0
SOLID
  8
0
 62
    15
 10
3.890040
 20
1.651320
 11
3.890480
 21
2.387440
 12
3.937560
 22
1.649120
 13
3.938000
 23
2.385240
  0
POLYLINE
  8
0
  6
CONTINUOUS
 66
     1
 40
0.000000
 41
0.000000
  0
VERTEX
  8
0
  6
CONTINUOUS
 10
3.890040
 20
1.651320
  0
VERTEX
  8
0
  6
CONTINUOUS
 10
3.890480
 20
2.387440
  0
VERTEX
  8
0
  6
CONTINUOUS
 10
3.938000
 20
2.385240
  0
VERTEX
  8
0
  6
CONTINUOUS
 10
3.937560
 20
1.649120
  0
VERTEX
  8
0
  6
CONTINUOUS
 10
3.890040
 20
1.651320
  0
SEQEND
  8
0
  0
SOLID
  8
0
 62
    15
 10
3.937560
 20
1.649120
 11
3.938000
 21
2.385240
 12
3.979800
 22
1.644720
 13
3.980240
 23
2.381280
  0
POLYLINE
  8
0
  6
CONTINUOUS
 66
     1
 40
0.000000
 41
0.000000
  0
VERTEX
  8
0
  6
CONTINUOUS
 10
3.937560
 20
1.649120
  0
VERTEX
  8
0
  6
CONTINUOUS
 10
3.938000
 20
2.385240
  0
VERTEX
  8
0
  6
CONTINUOUS
 10
3.980240
 20
2.381280
  0
VERTEX
  8
0
  6
CONTINUOUS
 10
3.979800
 20
1.644720
  0
VERTEX
  8
0
  6
CONTINUOUS
 10
3.937560
 20
1.649120
  0
SEQEND
  8
0
  0
SOLID
  8
0
 62
    15
 10
3.979800
 20
1.644720
 11
3.980240
 21
2.381280
 12
4.017640
 22
1.638560
 13
4.018080
 23
2.374680
  0
POLYLINE
  8
0
  6
CONTINUOUS
 66
     1
 40
0.000000
 41
0.000000
  0
VERTEX
  8
0
  6
CONTINUOUS
 10
3.979800
 20
1.644720
  0
VERTEX
  8
0
  6
CONTINUOUS
 10
3.980240
 20
2.381280
  0
VERTEX
  8
0
  6
CONTINUOUS
 10
4.018080
 20
2.374680
  0
VERTEX
  8
0
  6
CONTINUOUS
 10
4.017640
 20
1.638560
  0
VERTEX
  8
0
  6
CONTINUOUS
 10
3.979800
 20
1.644720
  0
SEQEND
  8
0
  0
SOLID
  8
0
 62
    15
 10
4.017640
 20
1.638560
 11
4.018080
 21
2.374680
 12
4.051080
 22
1.629320
 13
4.051520
 23
2.365880
  0
POLYLINE
  8
0
  6
CONTINUOUS
 66
     1
 40
0.000000
 41
0.000000
  0
VERTEX
  8
0
  6
CONTINUOUS
 10
4.017640
 20
1.638560
  0
VERTEX
  8
0
  6
CONTINUOUS
 10
4.018080
 20
2.374680
  0
VERTEX
  8
0
  6
CONTINUOUS
 10
4.051520
 20
2.365880
  0
VERTEX
  8
0
  6
CONTINUOUS
 10
4.051080
 20
1.629320
  0
VERTEX
  8
0
  6
CONTINUOUS
 10
4.017640
 20
1.638560
  0
SEQEND
  8
0
  0
SOLID
  8
0
 62
    15
 10
4.051080
 20
1.629320
 11
4.051520
 21
2.365880
 12
4.081440
 22
1.617440
 13
4.082320
 23
2.354000
  0
POLYLINE
  8
0
  6
CONTINUOUS
 66
     1
 40
0.000000
 41
0.000000
  0
VERTEX
  8
0
  6
CONTINUOUS
 10
4.051080
 20
1.629320
  0
VERTEX
  8
0
  6
CONTINUOUS
 10
4.051520
 20
2.365880
  0
VERTEX
  8
0
  6
CONTINUOUS
 10
4.082320
 20
2.354000
  0
VERTEX
  8
0
  6
CONTINUOUS
 10
4.081440
 20
1.617440
  0
VERTEX
  8
0
  6
CONTINUOUS
 10
4.051080
 20
1.629320
  0
SEQEND
  8
0
  0
SOLID
  8
0
 62
    15
 10
4.081440
 20
1.617440
 11
4.082320
 21
2.354000
 12
4.109600
 22
1.602040
 13
4.110040
 23
2.338600
  0
POLYLINE
  8
0
  6
CONTINUOUS
 66
     1
 40
0.000000
 41
0.000000
  0
VERTEX
  8
0
  6
CONTINUOUS
 10
4.081440
 20
1.617440
  0
VERTEX
  8
0
  6
CONTINUOUS
 10
4.082320
 20
2.354000
  0
VERTEX
  8
0
  6
CONTINUOUS
 10
4.110040
 20
2.338600
  0
VERTEX
  8
0
  6
CONTINUOUS
 10
4.109600
 20
1.602040
  0
VERTEX
  8
0
  6
CONTINUOUS
 10
4.081440
 20
1.617440
  0
SEQEND
  8
0
  0
SOLID
  8
0
 62
    15
 10
4.109600
 20
1.602040
 11
4.110040
 21
2.338600
 12
4.136000
 22
1.583120
 13
4.136440
 23
2.319680
  0
POLYLINE
  8
0
  6
CONTINUOUS
 66
     1
 40
0.000000
 41
0.000000
  0
VERTEX
  8
0
  6
CONTINUOUS
 10
4.109600
 20
1.602040
  0
VERTEX
  8
0
  6
CONTINUOUS
 10
4.110040
 20
2.338600
  0
VERTEX
  8
0
  6
CONTINUOUS
 10
4.136440
 20
2.319680
  0
VERTEX
  8
0
  6
CONTINUOUS
 10
4.136000
 20
1.583120
  0
VERTEX
  8
0
  6
CONTINUOUS
 10
4.109600
 20
1.602040
  0
SEQEND
  8
0
  0
SOLID
  8
0
 62
    15
 10
4.136000
 20
1.583120
 11
4.136440
 21
2.319680
 12
4.189240
 22
1.543080
 13
4.189680
 23
2.279200
  0
POLYLINE
  8
0
  6
CONTINUOUS
 66
     1
 40
0.000000
 41
0.000000
  0
VERTEX
  8
0
  6
CONTINUOUS
 10
4.136000
 20
1.583120
  0
VERTEX
  8
0
  6
CONTINUOUS
 10
4.136440
 20
2.319680
  0
VERTEX
  8
0
  6
CONTINUOUS
 10
4.189680
 20
2.279200
  0
VERTEX
  8
0
  6
CONTINUOUS
 10
4.189240
 20
1.543080
  0
VERTEX
  8
0
  6
CONTINUOUS
 10
4.136000
 20
1.583120
  0
SEQEND
  8
0
  0
SOLID
  8
0
 62
    15
 10
4.189240
 20
1.543080
 11
4.189680
 21
2.279200
 12
4.245560
 22
1.508760
 13
4.246440
 23
2.245320
  0
POLYLINE
  8
0
  6
CONTINUOUS
 66
     1
 40
0.000000
 41
0.000000
  0
VERTEX
  8
0
  6
CONTINUOUS
 10
4.189240
 20
1.543080
  0
VERTEX
  8
0
  6
CONTINUOUS
 10
4.189680
 20
2.279200
  0
VERTEX
  8
0
  6
CONTINUOUS
 10
4.246440
 20
2.245320
  0
VERTEX
  8
0
  6
CONTINUOUS
 10
4.245560
 20
1.508760
  0
VERTEX
  8
0
  6
CONTINUOUS
 10
4.189240
 20
1.543080
  0
SEQEND
  8
0
  0
SOLID
  8
0
 62
    15
 10
4.245560
 20
1.508760
 11
4.246440
 21
2.245320
 12
4.306720
 22
1.485000
 13
4.307160
 23
2.221560
  0
POLYLINE
  8
0
  6
CONTINUOUS
 66
     1
 40
0.000000
 41
0.000000
  0
VERTEX
  8
0
  6
CONTINUOUS
 10
4.245560
 20
1.508760
  0
VERTEX
  8
0
  6
CONTINUOUS
 10
4.246440
 20
2.245320
  0
VERTEX
  8
0
  6
CONTINUOUS
 10
4.307160
 20
2.221560
  0
VERTEX
  8
0
  6
CONTINUOUS
 10
4.306720
 20
1.485000
  0
VERTEX
  8
0
  6
CONTINUOUS
 10
4.245560
 20
1.508760
  0
SEQEND
  8
0
  0
SOLID
  8
0
 62
    15
 10
4.306720
 20
1.485000
 11
4.307160
 21
2.221560
 12
4.338840
 22
1.478840
 13
4.339720
 23
2.214960
  0
POLYLINE
  8
0
  6
CONTINUOUS
 66
     1
 40
0.000000
 41
0.000000
  0
VERTEX
  8
0
  6
CONTINUOUS
 10
4.306720
 20
1.485000
  0
VERTEX
  8
0
  6
CONTINUOUS
 10
4.307160
 20
2.221560
  0
VERTEX
  8
0
  6
CONTINUOUS
 10
4.339720
 20
2.214960
  0
VERTEX
  8
0
  6
CONTINUOUS
 10
4.338840
 20
1.478840
  0
VERTEX
  8
0
  6
CONTINUOUS
 10
4.306720
 20
1.485000
  0
SEQEND
  8
0
  0
SOLID
  8
0
 62
    15
 10
4.338840
 20
1.478840
 11
4.339720
 21
2.214960
 12
4.372720
 22
1.476200
 13
4.373160
 23
2.212760
  0
POLYLINE
  8
0
  6
CONTINUOUS
 66
     1
 40
0.000000
 41
0.000000
  0
VERTEX
  8
0
  6
CONTINUOUS
 10
4.338840
 20
1.478840
  0
VERTEX
  8
0
  6
CONTINUOUS
 10
4.339720
 20
2.214960
  0
VERTEX
  8
0
  6
CONTINUOUS
 10
4.373160
 20
2.212760
  0
VERTEX
  8
0
  6
CONTINUOUS
 10
4.372720
 20
1.476200
  0
VERTEX
  8
0
  6
CONTINUOUS
 10
4.338840
 20
1.478840
  0
SEQEND
  8
0
  0
SOLID
  8
0
 62
    15
 10
4.372720
 20
1.476200
 11
4.373160
 21
2.212760
 12
4.649920
 22
1.476200
 13
4.650360
 23
2.212760
  0
POLYLINE
  8
0
  6
CONTINUOUS
 66
     1
 40
0.000000
 41
0.000000
  0
VERTEX
  8
0
  6
CONTINUOUS
 10
4.372720
 20
1.476200
  0
VERTEX
  8
0
  6
CONTINUOUS
 10
4.373160
 20
2.212760
  0
VERTEX
  8
0
  6
CONTINUOUS
 10
4.650360
 20
2.212760
  0
VERTEX
  8
0
  6
CONTINUOUS
 10
4.649920
 20
1.476200
  0
VERTEX
  8
0
  6
CONTINUOUS
 10
4.372720
 20
1.476200
  0
SEQEND
  8
0
  0
SOLID
  8
0
 62
    15
 10
4.649920
 20
1.476200
 11
4.650360
 21
2.212760
 12
4.649920
 22
1.421640
 13
4.650360
 23
2.158200
  0
POLYLINE
  8
0
  6
CONTINUOUS
 66
     1
 40
0.000000
 41
0.000000
  0
VERTEX
  8
0
  6
CONTINUOUS
 10
4.649920
 20
1.476200
  0
VERTEX
  8
0
  6
CONTINUOUS
 10
4.650360
 20
2.212760
  0
VERTEX
  8
0
  6
CONTINUOUS
 10
4.650360
 20
2.158200
  0
VERTEX
  8
0
  6
CONTINUOUS
 10
4.649920
 20
1.421640
  0
VERTEX
  8
0
  6
CONTINUOUS
 10
4.649920
 20
1.476200
  0
SEQEND
  8
0
  0
SOLID
  8
0
 62
    15
 10
6.906680
 20
1.421640
 11
6.907120
 21
2.158200
 12
6.906680
 22
1.357400
 13
6.907120
 23
2.093960
  0
POLYLINE
  8
0
  6
CONTINUOUS
 66
     1
 40
0.000000
 41
0.000000
  0
VERTEX
  8
0
  6
CONTINUOUS
 10
6.906680
 20
1.421640
  0
VERTEX
  8
0
  6
CONTINUOUS
 10
6.907120
 20
2.158200
  0
VERTEX
  8
0
  6
CONTINUOUS
 10
6.907120
 20
2.093960
  0
VERTEX
  8
0
  6
CONTINUOUS
 10
6.906680
 20
1.357400
  0
VERTEX
  8
0
  6
CONTINUOUS
 10
6.906680
 20
1.421640
  0
SEQEND
  8
0
  0
SOLID
  8
0
 62
    15
 10
4.649920
 20
1.421640
 11
4.650360
 21
2.158200
 12
6.906680
 22
1.421640
 13
6.907120
 23
2.158200
  0
POLYLINE
  8
0
  6
CONTINUOUS
 66
     1
 40
0.000000
 41
0.000000
  0
VERTEX
  8
0
  6
CONTINUOUS
 10
4.649920
 20
1.421640
  0
VERTEX
  8
0
  6
CONTINUOUS
 10
4.650360
 20
2.158200
  0
VERTEX
  8
0
  6
CONTINUOUS
 10
6.907120
 20
2.158200
  0
VERTEX
  8
0
  6
CONTINUOUS
 10
6.906680
 20
1.421640
  0
VERTEX
  8
0
  6
CONTINUOUS
 10
4.649920
 20
1.421640
  0
SEQEND
  8
0
  0
SOLID
  8
0
 62
    15
 10
3.835920
 20
1.651760
 11
3.836360
 21
2.388320
 12
3.890040
 22
1.651320
 13
3.890480
 23
2.387440
  0
POLYLINE
  8
0
  6
CONTINUOUS
 66
     1
 40
0.000000
 41
0.000000
  0
VERTEX
  8
0
  6
CONTINUOUS
 10
3.835920
 20
1.651760
  0
VERTEX
  8
0
  6
CONTINUOUS
 10
3.836360
 20
2.388320
  0
VERTEX
  8
0
  6
CONTINUOUS
 10
3.890480
 20
2.387440
  0
VERTEX
  8
0
  6
CONTINUOUS
 10
3.890040
 20
1.651320
  0
VERTEX
  8
0
  6
CONTINUOUS
 10
3.835920
 20
1.651760
  0
SEQEND
  8
0
  0
SOLID
  8
0
 62
    15
 10
6.977080
 20
1.357840
 11
6.977520
 21
2.093960
 12
7.037800
 22
1.347720
 13
7.038680
 23
2.084280
  0
POLYLINE
  8
0
  6
CONTINUOUS
 66
     1
 40
0.000000
 41
0.000000
  0
VERTEX
  8
0
  6
CONTINUOUS
 10
6.977080
 20
1.357840
  0
VERTEX
  8
0
  6
CONTINUOUS
 10
6.977520
 20
2.093960
  0
VERTEX
  8
0
  6
CONTINUOUS
 10
7.038680
 20
2.084280
  0
VERTEX
  8
0
  6
CONTINUOUS
 10
7.037800
 20
1.347720
  0
VERTEX
  8
0
  6
CONTINUOUS
 10
6.977080
 20
1.357840
  0
SEQEND
  8
0
  0
SOLID
  8
0
 62
    15
 10
7.037800
 20
1.347720
 11
7.038680
 21
2.084280
 12
7.091040
 22
1.330560
 13
7.091920
 23
2.066680
  0
POLYLINE
  8
0
  6
CONTINUOUS
 66
     1
 40
0.000000
 41
0.000000
  0
VERTEX
  8
0
  6
CONTINUOUS
 10
7.037800
 20
1.347720
  0
VERTEX
  8
0
  6
CONTINUOUS
 10
7.038680
 20
2.084280
  0
VERTEX
  8
0
  6
CONTINUOUS
 10
7.091920
 20
2.066680
  0
VERTEX
  8
0
  6
CONTINUOUS
 10
7.091040
 20
1.330560
  0
VERTEX
  8
0
  6
CONTINUOUS
 10
7.037800
 20
1.347720
  0
SEQEND
  8
0
  0
SOLID
  8
0
 62
    15
 10
7.091040
 20
1.330560
 11
7.091920
 21
2.066680
 12
7.138120
 22
1.308560
 13
7.138560
 23
2.044680
  0
POLYLINE
  8
0
  6
CONTINUOUS
 66
     1
 40
0.000000
 41
0.000000
  0
VERTEX
  8
0
  6
CONTINUOUS
 10
7.091040
 20
1.330560
  0
VERTEX
  8
0
  6
CONTINUOUS
 10
7.091920
 20
2.066680
  0
VERTEX
  8
0
  6
CONTINUOUS
 10
7.138560
 20
2.044680
  0
VERTEX
  8
0
  6
CONTINUOUS
 10
7.138120
 20
1.308560
  0
VERTEX
  8
0
  6
CONTINUOUS
 10
7.091040
 20
1.330560
  0
SEQEND
  8
0
  0
SOLID
  8
0
 62
    15
 10
7.138120
 20
1.308560
 11
7.138560
 21
2.044680
 12
7.218640
 22
1.261480
 13
7.219080
 23
1.997600
  0
POLYLINE
  8
0
  6
CONTINUOUS
 66
     1
 40
0.000000
 41
0.000000
  0
VERTEX
  8
0
  6
CONTINUOUS
 10
7.138120
 20
1.308560
  0
VERTEX
  8
0
  6
CONTINUOUS
 10
7.138560
 20
2.044680
  0
VERTEX
  8
0
  6
CONTINUOUS
 10
7.219080
 20
1.997600
  0
VERTEX
  8
0
  6
CONTINUOUS
 10
7.218640
 20
1.261480
  0
VERTEX
  8
0
  6
CONTINUOUS
 10
7.138120
 20
1.308560
  0
SEQEND
  8
0
  0
SOLID
  8
0
 62
    15
 10
7.218640
 20
1.261480
 11
7.219080
 21
1.997600
 12
7.254720
 22
1.241680
 13
7.255160
 23
1.978240
  0
POLYLINE
  8
0
  6
CONTINUOUS
 66
     1
 40
0.000000
 41
0.000000
  0
VERTEX
  8
0
  6
CONTINUOUS
 10
7.218640
 20
1.261480
  0
VERTEX
  8
0
  6
CONTINUOUS
 10
7.219080
 20
1.997600
  0
VERTEX
  8
0
  6
CONTINUOUS
 10
7.255160
 20
1.978240
  0
VERTEX
  8
0
  6
CONTINUOUS
 10
7.254720
 20
1.241680
  0
VERTEX
  8
0
  6
CONTINUOUS
 10
7.218640
 20
1.261480
  0
SEQEND
  8
0
  0
SOLID
  8
0
 62
    15
 10
7.254720
 20
1.241680
 11
7.255160
 21
1.978240
 12
7.289920
 22
1.228040
 13
7.290360
 23
1.964600
  0
POLYLINE
  8
0
  6
CONTINUOUS
 66
     1
 40
0.000000
 41
0.000000
  0
VERTEX
  8
0
  6
CONTINUOUS
 10
7.254720
 20
1.241680
  0
VERTEX
  8
0
  6
CONTINUOUS
 10
7.255160
 20
1.978240
  0
VERTEX
  8
0
  6
CONTINUOUS
 10
7.290360
 20
1.964600
  0
VERTEX
  8
0
  6
CONTINUOUS
 10
7.289920
 20
1.228040
  0
VERTEX
  8
0
  6
CONTINUOUS
 10
7.254720
 20
1.241680
  0
SEQEND
  8
0
  0
SOLID
  8
0
 62
    15
 10
7.289920
 20
1.228040
 11
7.290360
 21
1.964600
 12
7.363840
 22
1.209120
 13
7.364280
 23
1.945680
  0
POLYLINE
  8
0
  6
CONTINUOUS
 66
     1
 40
0.000000
 41
0.000000
  0
VERTEX
  8
0
  6
CONTINUOUS
 10
7.289920
 20
1.228040
  0
VERTEX
  8
0
  6
CONTINUOUS
 10
7.290360
 20
1.964600
  0
VERTEX
  8
0
  6
CONTINUOUS
 10
7.364280
 20
1.945680
  0
VERTEX
  8
0
  6
CONTINUOUS
 10
7.363840
 20
1.209120
  0
VERTEX
  8
0
  6
CONTINUOUS
 10
7.289920
 20
1.228040
  0
SEQEND
  8
0
  0
SOLID
  8
0
 62
    15
 10
7.363840
 20
1.209120
 11
7.364280
 21
1.945680
 12
7.445680
 22
1.192400
 13
7.446120
 23
1.928520
  0
POLYLINE
  8
0
  6
CONTINUOUS
 66
     1
 40
0.000000
 41
0.000000
  0
VERTEX
  8
0
  6
CONTINUOUS
 10
7.363840
 20
1.209120
  0
VERTEX
  8
0
  6
CONTINUOUS
 10
7.364280
 20
1.945680
  0
VERTEX
  8
0
  6
CONTINUOUS
 10
7.446120
 20
1.928520
  0
VERTEX
  8
0
  6
CONTINUOUS
 10
7.445680
 20
1.192400
  0
VERTEX
  8
0
  6
CONTINUOUS
 10
7.363840
 20
1.209120
  0
SEQEND
  8
0
  0
SOLID
  8
0
 62
    15
 10
7.445680
 20
1.192400
 11
7.446120
 21
1.928520
 12
7.491000
 22
1.185360
 13
7.491440
 23
1.921480
  0
POLYLINE
  8
0
  6
CONTINUOUS
 66
     1
 40
0.000000
 41
0.000000
  0
VERTEX
  8
0
  6
CONTINUOUS
 10
7.445680
 20
1.192400
  0
VERTEX
  8
0
  6
CONTINUOUS
 10
7.446120
 20
1.928520
  0
VERTEX
  8
0
  6
CONTINUOUS
 10
7.491440
 20
1.921480
  0
VERTEX
  8
0
  6
CONTINUOUS
 10
7.491000
 20
1.185360
  0
VERTEX
  8
0
  6
CONTINUOUS
 10
7.445680
 20
1.192400
  0
SEQEND
  8
0
  0
SOLID
  8
0
 62
    15
 10
7.491000
 20
1.185360
 11
7.491440
 21
1.921480
 12
7.539840
 22
1.180080
 13
7.540280
 23
1.916200
  0
POLYLINE
  8
0
  6
CONTINUOUS
 66
     1
 40
0.000000
 41
0.000000
  0
VERTEX
  8
0
  6
CONTINUOUS
 10
7.491000
 20
1.185360
  0
VERTEX
  8
0
  6
CONTINUOUS
 10
7.491440
 20
1.921480
  0
VERTEX
  8
0
  6
CONTINUOUS
 10
7.540280
 20
1.916200
  0
VERTEX
  8
0
  6
CONTINUOUS
 10
7.539840
 20
1.180080
  0
VERTEX
  8
0
  6
CONTINUOUS
 10
7.491000
 20
1.185360
  0
SEQEND
  8
0
  0
SOLID
  8
0
 62
    15
 10
7.539840
 20
1.180080
 11
7.540280
 21
1.916200
 12
7.592640
 22
1.176560
 13
7.593520
 23
1.912680
  0
POLYLINE
  8
0
  6
CONTINUOUS
 66
     1
 40
0.000000
 41
0.000000
  0
VERTEX
  8
0
  6
CONTINUOUS
 10
7.539840
 20
1.180080
  0
VERTEX
  8
0
  6
CONTINUOUS
 10
7.540280
 20
1.916200
  0
VERTEX
  8
0
  6
CONTINUOUS
 10
7.593520
 20
1.912680
  0
VERTEX
  8
0
  6
CONTINUOUS
 10
7.592640
 20
1.176560
  0
VERTEX
  8
0
  6
CONTINUOUS
 10
7.539840
 20
1.180080
  0
SEQEND
  8
0
  0
SOLID
  8
0
 62
    15
 10
7.650280
 20
1.175240
 11
7.650720
 21
1.911360
 12
7.650280
 22
0.942040
 13
7.650720
 23
1.678600
  0
POLYLINE
  8
0
  6
CONTINUOUS
 66
     1
 40
0.000000
 41
0.000000
  0
VERTEX
  8
0
  6
CONTINUOUS
 10
7.650280
 20
1.175240
  0
VERTEX
  8
0
  6
CONTINUOUS
 10
7.650720
 20
1.911360
  0
VERTEX
  8
0
  6
CONTINUOUS
 10
7.650720
 20
1.678600
  0
VERTEX
  8
0
  6
CONTINUOUS
 10
7.650280
 20
0.942040
  0
VERTEX
  8
0
  6
CONTINUOUS
 10
7.650280
 20
1.175240
  0
SEQEND
  8
0
  0
SOLID
  8
0
 62
    15
 10
7.592640
 20
1.176560
 11
7.593520
 21
1.912680
 12
7.650280
 22
1.175240
 13
7.650720
 23
1.911360
  0
POLYLINE
  8
0
  6
CONTINUOUS
 66
     1
 40
0.000000
 41
0.000000
  0
VERTEX
  8
0
  6
CONTINUOUS
 10
7.592640
 20
1.176560
  0
VERTEX
  8
0
  6
CONTINUOUS
 10
7.593520
 20
1.912680
  0
VERTEX
  8
0
  6
CONTINUOUS
 10
7.650720
 20
1.911360
  0
VERTEX
  8
0
  6
CONTINUOUS
 10
7.650280
 20
1.175240
  0
VERTEX
  8
0
  6
CONTINUOUS
 10
7.592640
 20
1.176560
  0
SEQEND
  8
0
  0
SOLID
  8
0
 62
    15
 10
3.090120
 20
1.734920
 11
3.090560
 21
2.471040
 12
3.834600
 22
1.734920
 13
3.835480
 23
2.471040
  0
POLYLINE
  8
0
  6
CONTINUOUS
 66
     1
 40
0.000000
 41
0.000000
  0
VERTEX
  8
0
  6
CONTINUOUS
 10
3.090120
 20
1.734920
  0
VERTEX
  8
0
  6
CONTINUOUS
 10
3.090560
 20
2.471040
  0
VERTEX
  8
0
  6
CONTINUOUS
 10
3.835480
 20
2.471040
  0
VERTEX
  8
0
  6
CONTINUOUS
 10
3.834600
 20
1.734920
  0
VERTEX
  8
0
  6
CONTINUOUS
 10
3.090120
 20
1.734920
  0
SEQEND
  8
0
  0
SOLID
  8
0
 62
    15
 10
3.834600
 20
1.734920
 11
3.835480
 21
2.471040
 12
3.834600
 22
1.651760
 13
3.835480
 23
2.388320
  0
POLYLINE
  8
0
  6
CONTINUOUS
 66
     1
 40
0.000000
 41
0.000000
  0
VERTEX
  8
0
  6
CONTINUOUS
 10
3.834600
 20
1.734920
  0
VERTEX
  8
0
  6
CONTINUOUS
 10
3.835480
 20
2.471040
  0
VERTEX
  8
0
  6
CONTINUOUS
 10
3.835480
 20
2.388320
  0
VERTEX
  8
0
  6
CONTINUOUS
 10
3.834600
 20
1.651760
  0
VERTEX
  8
0
  6
CONTINUOUS
 10
3.834600
 20
1.734920
  0
SEQEND
  8
0
  0
SOLID
  8
0
 62
    15
 10
3.834600
 20
1.651760
 11
3.835480
 21
2.388320
 12
3.835920
 22
1.651760
 13
3.836360
 23
2.388320
  0
POLYLINE
  8
0
  6
CONTINUOUS
 66
     1
 40
0.000000
 41
0.000000
  0
VERTEX
  8
0
  6
CONTINUOUS
 10
3.834600
 20
1.651760
  0
VERTEX
  8
0
  6
CONTINUOUS
 10
3.835480
 20
2.388320
  0
VERTEX
  8
0
  6
CONTINUOUS
 10
3.836360
 20
2.388320
  0
VERTEX
  8
0
  6
CONTINUOUS
 10
3.835920
 20
1.651760
  0
VERTEX
  8
0
  6
CONTINUOUS
 10
3.834600
 20
1.651760
  0
SEQEND
  8
0
  0
POLYLINE
  8
0
  6
CONTINUOUS
 66
     1
 40
0.000000
 41
0.000000
  0
VERTEX
  8
0
  6
CONTINUOUS
 10
3.835920
 20
1.651760
  0
VERTEX
  8
0
  6
CONTINUOUS
 10
3.890040
 20
1.651320
  0
VERTEX
  8
0
  6
CONTINUOUS
 10
3.937560
 20
1.649120
  0
VERTEX
  8
0
  6
CONTINUOUS
 10
3.979800
 20
1.644720
  0
VERTEX
  8
0
  6
CONTINUOUS
 10
4.017640
 20
1.638560
  0
VERTEX
  8
0
  6
CONTINUOUS
 10
4.051080
 20
1.629320
  0
VERTEX
  8
0
  6
CONTINUOUS
 10
4.081440
 20
1.617440
  0
VERTEX
  8
0
  6
CONTINUOUS
 10
4.109600
 20
1.602040
  0
VERTEX
  8
0
  6
CONTINUOUS
 10
4.136000
 20
1.583120
  0
VERTEX
  8
0
  6
CONTINUOUS
 10
4.189240
 20
1.543080
  0
VERTEX
  8
0
  6
CONTINUOUS
 10
4.245560
 20
1.508760
  0
VERTEX
  8
0
  6
CONTINUOUS
 10
4.306720
 20
1.485000
  0
VERTEX
  8
0
  6
CONTINUOUS
 10
4.338840
 20
1.478840
  0
VERTEX
  8
0
  6
CONTINUOUS
 10
4.372720
 20
1.476200
  0
VERTEX
  8
0
  6
CONTINUOUS
 10
4.649920
 20
1.476200
  0
VERTEX
  8
0
  6
CONTINUOUS
 10
4.649920
 20
1.421640
  0
VERTEX
  8
0
  6
CONTINUOUS
 10
6.906680
 20
1.421640
  0
VERTEX
  8
0
  6
CONTINUOUS
 10
6.906680
 20
1.357400
  0
VERTEX
  8
0
  6
CONTINUOUS
 10
6.977080
 20
1.357840
  0
VERTEX
  8
0
  6
CONTINUOUS
 10
7.037800
 20
1.347720
  0
VERTEX
  8
0
  6
CONTINUOUS
 10
7.091040
 20
1.330560
  0
VERTEX
  8
0
  6
CONTINUOUS
 10
7.138120
 20
1.308560
  0
VERTEX
  8
0
  6
CONTINUOUS
 10
7.218640
 20
1.261480
  0
VERTEX
  8
0
  6
CONTINUOUS
 10
7.254720
 20
1.241680
  0
VERTEX
  8
0
  6
CONTINUOUS
 10
7.289920
 20
1.228040
  0
VERTEX
  8
0
  6
CONTINUOUS
 10
7.363840
 20
1.209120
  0
VERTEX
  8
0
  6
CONTINUOUS
 10
7.445680
 20
1.192400
  0
VERTEX
  8
0
  6
CONTINUOUS
 10
7.491000
 20
1.185360
  0
VERTEX
  8
0
  6
CONTINUOUS
 10
7.539840
 20
1.180080
  0
VERTEX
  8
0
  6
CONTINUOUS
 10
7.592640
 20
1.176560
  0
VERTEX
  8
0
  6
CONTINUOUS
 10
7.650280
 20
1.175240
  0
VERTEX
  8
0
  6
CONTINUOUS
 10
7.650280
 20
0.942040
  0
VERTEX
  8
0
  6
CONTINUOUS
 10
3.090120
 20
0.942040
  0
VERTEX
  8
0
  6
CONTINUOUS
 10
3.090120
 20
1.734920
  0
VERTEX
  8
0
  6
CONTINUOUS
 10
3.834600
 20
1.734920
  0
VERTEX
  8
0
  6
CONTINUOUS
 10
3.834600
 20
1.651760
  0
VERTEX
  8
0
  6
CONTINUOUS
 10
3.835920
 20
1.651760
  0
SEQEND
  8
0
  0
TEXT
  8
0
 10
5.074080
 20
0.663080
 40
0.138039
  1
BA  392
 41
1.000000
  7
SN0
 71
     0
 72
     5
 11
5.663923
 21
0.663080
  0
TEXT
  8
0
 10
4.766080
 20
0.471240
 40
0.138039
  1
13/16" X 4-9/16"
 41
1.000000
  7
SN0
 71
     0
 72
     5
 11
5.970489
 21
0.471240
  0
ENDSEC
  0
EOF
