  0
SECTION
  2
HEADER
  9
$ACADVER
  1
AC1006
  9
$EXTMIN
 10
2.225080
 20
0.338800
  9
$EXTMAX
 10
7.182120
 20
2.722720
  9
$LTSCALE
 40
0.044000
  9
$PDMODE
 70
    35
  9
$PDSIZE
 40
0.035200
  0
ENDSEC
  0
SECTION
  2
TABLES
  0
TABLE
  2
LTYPE
 70
     9
  0
LTYPE
  2
CONTINUOUS
 70
    64
  3
Solid line
 72
    65
 73
     0
 40
0.000000
  0
LTYPE
  2
DASHED
 70
    64
  3
__ __ __ __ __ __ __ __ __ __ __ __ __ __ __
 72
    65
 73
     2
 40
0.000330
 49
0.000220
 49
-0.000110
  0
LTYPE
  2
HIDDEN
 70
    64
  3
 _ _ _ _ _ _ _ _ _ _ _ _ _ _ _ _ _ _ _ _ _ _
 72
    65
 73
     2
 40
0.000165
 49
0.000110
 49
-0.000055
  0
LTYPE
  2
CENTER
 70
    64
  3
____ _ ____ _ ____ _ ____ _ ____ _ ____ _ ____
 72
    65
 73
     4
 40
0.000880
 49
0.000550
 49
-0.000110
 49
0.000110
 49
-0.000110
  0
LTYPE
  2
PHANTOM
 70
    64
  3
_____ _ _ _____ _ _ _____ _ _ _____ _ _ ____
 72
    65
 73
     6
 40
0.001100
 49
0.000550
 49
-0.000110
 49
0.000110
 49
-0.000110
 49
0.000110
 49
-0.000110
  0
LTYPE
  2
DOT
 70
    64
  3
...............................................
 72
    65
 73
     2
 40
0.000110
 49
0.000000
 49
-0.000110
  0
LTYPE
  2
DASHDOT
 70
    64
  3
__ . __ . __ . __ . __ . __ . __ . __ . __ . __
 72
    65
 73
     4
 40
0.000440
 49
0.000220
 49
-0.000110
 49
0.000000
 49
-0.000110
  0
LTYPE
  2
BORDER
 70
    64
  3
__ __ . __ __ . __ __ . __ __ . __ __ . __ __
 72
    65
 73
     6
 40
0.000770
 49
0.000220
 49
-0.000110
 49
0.000220
 49
-0.000110
 49
0.000000
 49
-0.000110
  0
LTYPE
  2
DIVIDE
 70
    64
  3
__ . . __ . . __ . . __ . . __ . . __ . . __
 72
    65
 73
     6
 40
0.000550
 49
0.000220
 49
-0.000110
 49
0.000000
 49
-0.000110
 49
0.000000
 49
-0.000110
  0
LTYPE
  2
DOTDOT
 70
    64
  3
 . .  . .  . .  . .  . .  . . 
 72
    65
 73
     5
 40
0.000242
 49
-0.000110
 49
0.000000
 49
-0.000110
 49
0.000000
 49
-0.000110
  0
ENDTAB
  0
TABLE
  2
STYLE
 70
     2
  0
STYLE
 70
     0
  2
SN0
 40
0.000000
 41
0.000440
 50
0.000000
 71
     0
 42
0.000000
  3
ROMAND
  0
STYLE
 70
    68
  2
SV0
 40
0.000000
 41
0.000440
 50
0.000000
 71
     0
 42
0.000000
  3
ROMAND
  0
ENDTAB
  0
TABLE
  2
LAYER
 70
     3
  0
LAYER
  2
FOREGROUND
 70
    64
 62
     7
  6
CONTINUOUS
  0
LAYER
  2
BACKGROUND
 70
    65
 62
    -7
  6
CONTINUOUS
  0
LAYER
  2
0
 70
    64
 62
     7
  6
CONTINUOUS
  0
ENDTAB
  0
ENDSEC
  0
SECTION
  2
ENTITIES
  0
POLYLINE
  8
FOREGROUND
  6
CONTINUOUS
 66
     1
 40
0.000000
 41
0.000000
  0
VERTEX
  8
FOREGROUND
  6
CONTINUOUS
 10
0.000000
 20
3.061520
  0
VERTEX
  8
FOREGROUND
  6
CONTINUOUS
 10
8.499920
 20
3.061520
  0
VERTEX
  8
FOREGROUND
  6
CONTINUOUS
 10
8.499920
 20
-7.938480
  0
VERTEX
  8
FOREGROUND
  6
CONTINUOUS
 10
0.000000
 20
-7.938480
  0
VERTEX
  8
FOREGROUND
  6
CONTINUOUS
 10
0.000000
 20
3.061520
  0
SEQEND
  8
0
  0
POLYLINE
  8
0
  6
CONTINUOUS
 66
     1
 40
0.014080
 41
0.014080
  0
VERTEX
  8
0
  6
CONTINUOUS
 10
5.679520
 20
0.547800
  0
VERTEX
  8
0
  6
CONTINUOUS
 10
5.683040
 20
0.629640
  0
VERTEX
  8
0
  6
CONTINUOUS
 10
5.690080
 20
0.709720
  0
VERTEX
  8
0
  6
CONTINUOUS
 10
5.701520
 20
0.788040
  0
VERTEX
  8
0
  6
CONTINUOUS
 10
5.725720
 20
0.902440
  0
VERTEX
  8
0
  6
CONTINUOUS
 10
5.758280
 20
1.012440
  0
VERTEX
  8
0
  6
CONTINUOUS
 10
5.784240
 20
1.083720
  0
VERTEX
  8
0
  6
CONTINUOUS
 10
5.813720
 20
1.152800
  0
VERTEX
  8
0
  6
CONTINUOUS
 10
5.845840
 20
1.219680
  0
VERTEX
  8
0
  6
CONTINUOUS
 10
5.881480
 20
1.284800
  0
VERTEX
  8
0
  6
CONTINUOUS
 10
5.920200
 20
1.347720
  0
VERTEX
  8
0
  6
CONTINUOUS
 10
5.961120
 20
1.408000
  0
VERTEX
  8
0
  6
CONTINUOUS
 10
6.028000
 20
1.494680
  0
VERTEX
  8
0
  6
CONTINUOUS
 10
6.100600
 20
1.575640
  0
VERTEX
  8
0
  6
CONTINUOUS
 10
6.178040
 20
1.650880
  0
VERTEX
  8
0
  6
CONTINUOUS
 10
6.260320
 20
1.720400
  0
VERTEX
  8
0
  6
CONTINUOUS
 10
6.347000
 20
1.784200
  0
VERTEX
  8
0
  6
CONTINUOUS
 10
6.406840
 20
1.822920
  0
VERTEX
  8
0
  6
CONTINUOUS
 10
6.468000
 20
1.859000
  0
VERTEX
  8
0
  6
CONTINUOUS
 10
6.563040
 20
1.907400
  0
VERTEX
  8
0
  6
CONTINUOUS
 10
6.627720
 20
1.936000
  0
VERTEX
  8
0
  6
CONTINUOUS
 10
6.693720
 20
1.961960
  0
VERTEX
  8
0
  6
CONTINUOUS
 10
6.794040
 20
1.994520
  0
VERTEX
  8
0
  6
CONTINUOUS
 10
6.862240
 20
2.012120
  0
VERTEX
  8
0
  6
CONTINUOUS
 10
6.965640
 20
2.032360
  0
VERTEX
  8
0
  6
CONTINUOUS
 10
7.035160
 20
2.041600
  0
VERTEX
  8
0
  6
CONTINUOUS
 10
7.105120
 20
2.047760
  0
VERTEX
  8
0
  6
CONTINUOUS
 10
7.175080
 20
2.049960
  0
VERTEX
  8
0
  6
CONTINUOUS
 10
7.175080
 20
2.519880
  0
VERTEX
  8
0
  6
CONTINUOUS
 10
6.665560
 20
2.519880
  0
VERTEX
  8
0
  6
CONTINUOUS
 10
5.236000
 20
1.090320
  0
VERTEX
  8
0
  6
CONTINUOUS
 10
5.236000
 20
0.544280
  0
VERTEX
  8
0
  6
CONTINUOUS
 10
5.679520
 20
0.544280
  0
VERTEX
  8
0
  6
CONTINUOUS
 10
5.679520
 20
0.547800
  0
SEQEND
  8
0
  0
SOLID
  8
0
 62
    15
 10
3.249840
 20
1.922800
 11
3.890480
 21
1.560240
 12
3.141160
 22
1.828640
 13
3.781800
 23
1.466080
  0
POLYLINE
  8
0
  6
CONTINUOUS
 66
     1
 40
0.000000
 41
0.000000
  0
VERTEX
  8
0
  6
CONTINUOUS
 10
3.249840
 20
1.922800
  0
VERTEX
  8
0
  6
CONTINUOUS
 10
3.890480
 20
1.560240
  0
VERTEX
  8
0
  6
CONTINUOUS
 10
3.781800
 20
1.466080
  0
VERTEX
  8
0
  6
CONTINUOUS
 10
3.141160
 20
1.828640
  0
VERTEX
  8
0
  6
CONTINUOUS
 10
3.249840
 20
1.922800
  0
SEQEND
  8
0
  0
SOLID
  8
0
 62
    15
 10
4.164600
 20
2.721840
 11
4.805240
 21
2.359720
 12
4.164600
 22
2.252360
 13
4.805240
 23
1.889800
  0
POLYLINE
  8
0
  6
CONTINUOUS
 66
     1
 40
0.000000
 41
0.000000
  0
VERTEX
  8
0
  6
CONTINUOUS
 10
4.164600
 20
2.721840
  0
VERTEX
  8
0
  6
CONTINUOUS
 10
4.805240
 20
2.359720
  0
VERTEX
  8
0
  6
CONTINUOUS
 10
4.805240
 20
1.889800
  0
VERTEX
  8
0
  6
CONTINUOUS
 10
4.164600
 20
2.252360
  0
VERTEX
  8
0
  6
CONTINUOUS
 10
4.164600
 20
2.721840
  0
SEQEND
  8
0
  0
SOLID
  8
0
 62
    15
 10
4.164600
 20
2.252360
 11
4.805240
 21
1.889800
 12
4.024680
 22
2.244000
 13
4.665320
 23
1.881440
  0
POLYLINE
  8
0
  6
CONTINUOUS
 66
     1
 40
0.000000
 41
0.000000
  0
VERTEX
  8
0
  6
CONTINUOUS
 10
4.164600
 20
2.252360
  0
VERTEX
  8
0
  6
CONTINUOUS
 10
4.805240
 20
1.889800
  0
VERTEX
  8
0
  6
CONTINUOUS
 10
4.665320
 20
1.881440
  0
VERTEX
  8
0
  6
CONTINUOUS
 10
4.024680
 20
2.244000
  0
VERTEX
  8
0
  6
CONTINUOUS
 10
4.164600
 20
2.252360
  0
SEQEND
  8
0
  0
SOLID
  8
0
 62
    15
 10
4.024680
 20
2.244000
 11
4.665320
 21
1.881440
 12
3.886080
 22
2.222000
 13
4.526720
 23
1.859440
  0
POLYLINE
  8
0
  6
CONTINUOUS
 66
     1
 40
0.000000
 41
0.000000
  0
VERTEX
  8
0
  6
CONTINUOUS
 10
4.024680
 20
2.244000
  0
VERTEX
  8
0
  6
CONTINUOUS
 10
4.665320
 20
1.881440
  0
VERTEX
  8
0
  6
CONTINUOUS
 10
4.526720
 20
1.859440
  0
VERTEX
  8
0
  6
CONTINUOUS
 10
3.886080
 20
2.222000
  0
VERTEX
  8
0
  6
CONTINUOUS
 10
4.024680
 20
2.244000
  0
SEQEND
  8
0
  0
SOLID
  8
0
 62
    15
 10
3.886080
 20
2.222000
 11
4.526720
 21
1.859440
 12
3.750120
 22
2.186360
 13
4.390760
 23
1.823800
  0
POLYLINE
  8
0
  6
CONTINUOUS
 66
     1
 40
0.000000
 41
0.000000
  0
VERTEX
  8
0
  6
CONTINUOUS
 10
3.886080
 20
2.222000
  0
VERTEX
  8
0
  6
CONTINUOUS
 10
4.526720
 20
1.859440
  0
VERTEX
  8
0
  6
CONTINUOUS
 10
4.390760
 20
1.823800
  0
VERTEX
  8
0
  6
CONTINUOUS
 10
3.750120
 20
2.186360
  0
VERTEX
  8
0
  6
CONTINUOUS
 10
3.886080
 20
2.222000
  0
SEQEND
  8
0
  0
SOLID
  8
0
 62
    15
 10
3.750120
 20
2.186360
 11
4.390760
 21
1.823800
 12
3.617240
 22
2.138400
 13
4.257880
 23
1.775840
  0
POLYLINE
  8
0
  6
CONTINUOUS
 66
     1
 40
0.000000
 41
0.000000
  0
VERTEX
  8
0
  6
CONTINUOUS
 10
3.750120
 20
2.186360
  0
VERTEX
  8
0
  6
CONTINUOUS
 10
4.390760
 20
1.823800
  0
VERTEX
  8
0
  6
CONTINUOUS
 10
4.257880
 20
1.775840
  0
VERTEX
  8
0
  6
CONTINUOUS
 10
3.617240
 20
2.138400
  0
VERTEX
  8
0
  6
CONTINUOUS
 10
3.750120
 20
2.186360
  0
SEQEND
  8
0
  0
SOLID
  8
0
 62
    15
 10
3.617240
 20
2.138400
 11
4.257880
 21
1.775840
 12
3.488760
 22
2.078120
 13
4.129400
 23
1.715560
  0
POLYLINE
  8
0
  6
CONTINUOUS
 66
     1
 40
0.000000
 41
0.000000
  0
VERTEX
  8
0
  6
CONTINUOUS
 10
3.617240
 20
2.138400
  0
VERTEX
  8
0
  6
CONTINUOUS
 10
4.257880
 20
1.775840
  0
VERTEX
  8
0
  6
CONTINUOUS
 10
4.129400
 20
1.715560
  0
VERTEX
  8
0
  6
CONTINUOUS
 10
3.488760
 20
2.078120
  0
VERTEX
  8
0
  6
CONTINUOUS
 10
3.617240
 20
2.138400
  0
SEQEND
  8
0
  0
SOLID
  8
0
 62
    15
 10
3.488760
 20
2.078120
 11
4.129400
 21
1.715560
 12
3.366440
 22
2.005960
 13
4.006640
 23
1.643400
  0
POLYLINE
  8
0
  6
CONTINUOUS
 66
     1
 40
0.000000
 41
0.000000
  0
VERTEX
  8
0
  6
CONTINUOUS
 10
3.488760
 20
2.078120
  0
VERTEX
  8
0
  6
CONTINUOUS
 10
4.129400
 20
1.715560
  0
VERTEX
  8
0
  6
CONTINUOUS
 10
4.006640
 20
1.643400
  0
VERTEX
  8
0
  6
CONTINUOUS
 10
3.366440
 20
2.005960
  0
VERTEX
  8
0
  6
CONTINUOUS
 10
3.488760
 20
2.078120
  0
SEQEND
  8
0
  0
SOLID
  8
0
 62
    15
 10
3.366440
 20
2.005960
 11
4.006640
 21
1.643400
 12
3.249840
 22
1.922800
 13
3.890480
 23
1.560240
  0
POLYLINE
  8
0
  6
CONTINUOUS
 66
     1
 40
0.000000
 41
0.000000
  0
VERTEX
  8
0
  6
CONTINUOUS
 10
3.366440
 20
2.005960
  0
VERTEX
  8
0
  6
CONTINUOUS
 10
4.006640
 20
1.643400
  0
VERTEX
  8
0
  6
CONTINUOUS
 10
3.890480
 20
1.560240
  0
VERTEX
  8
0
  6
CONTINUOUS
 10
3.249840
 20
1.922800
  0
VERTEX
  8
0
  6
CONTINUOUS
 10
3.366440
 20
2.005960
  0
SEQEND
  8
0
  0
SOLID
  8
0
 62
    15
 10
2.669040
 20
0.746680
 11
3.309680
 21
0.384120
 12
2.225520
 22
0.746680
 13
2.866160
 23
0.384120
  0
POLYLINE
  8
0
  6
CONTINUOUS
 66
     1
 40
0.000000
 41
0.000000
  0
VERTEX
  8
0
  6
CONTINUOUS
 10
2.669040
 20
0.746680
  0
VERTEX
  8
0
  6
CONTINUOUS
 10
3.309680
 20
0.384120
  0
VERTEX
  8
0
  6
CONTINUOUS
 10
2.866160
 20
0.384120
  0
VERTEX
  8
0
  6
CONTINUOUS
 10
2.225520
 20
0.746680
  0
VERTEX
  8
0
  6
CONTINUOUS
 10
2.669040
 20
0.746680
  0
SEQEND
  8
0
  0
SOLID
  8
0
 62
    15
 10
3.141160
 20
1.828640
 11
3.781800
 21
1.466080
 12
3.041280
 22
1.724360
 13
3.681920
 23
1.361800
  0
POLYLINE
  8
0
  6
CONTINUOUS
 66
     1
 40
0.000000
 41
0.000000
  0
VERTEX
  8
0
  6
CONTINUOUS
 10
3.141160
 20
1.828640
  0
VERTEX
  8
0
  6
CONTINUOUS
 10
3.781800
 20
1.466080
  0
VERTEX
  8
0
  6
CONTINUOUS
 10
3.681920
 20
1.361800
  0
VERTEX
  8
0
  6
CONTINUOUS
 10
3.041280
 20
1.724360
  0
VERTEX
  8
0
  6
CONTINUOUS
 10
3.141160
 20
1.828640
  0
SEQEND
  8
0
  0
SOLID
  8
0
 62
    15
 10
3.041280
 20
1.724360
 11
3.681920
 21
1.361800
 12
2.950640
 22
1.610400
 13
3.591280
 23
1.247840
  0
POLYLINE
  8
0
  6
CONTINUOUS
 66
     1
 40
0.000000
 41
0.000000
  0
VERTEX
  8
0
  6
CONTINUOUS
 10
3.041280
 20
1.724360
  0
VERTEX
  8
0
  6
CONTINUOUS
 10
3.681920
 20
1.361800
  0
VERTEX
  8
0
  6
CONTINUOUS
 10
3.591280
 20
1.247840
  0
VERTEX
  8
0
  6
CONTINUOUS
 10
2.950640
 20
1.610400
  0
VERTEX
  8
0
  6
CONTINUOUS
 10
3.041280
 20
1.724360
  0
SEQEND
  8
0
  0
SOLID
  8
0
 62
    15
 10
2.950640
 20
1.610400
 11
3.591280
 21
1.247840
 12
2.871000
 22
1.487200
 13
3.511640
 23
1.124640
  0
POLYLINE
  8
0
  6
CONTINUOUS
 66
     1
 40
0.000000
 41
0.000000
  0
VERTEX
  8
0
  6
CONTINUOUS
 10
2.950640
 20
1.610400
  0
VERTEX
  8
0
  6
CONTINUOUS
 10
3.591280
 20
1.247840
  0
VERTEX
  8
0
  6
CONTINUOUS
 10
3.511640
 20
1.124640
  0
VERTEX
  8
0
  6
CONTINUOUS
 10
2.871000
 20
1.487200
  0
VERTEX
  8
0
  6
CONTINUOUS
 10
2.950640
 20
1.610400
  0
SEQEND
  8
0
  0
SOLID
  8
0
 62
    15
 10
2.871000
 20
1.487200
 11
3.511640
 21
1.124640
 12
2.803240
 22
1.355200
 13
3.443440
 23
0.992640
  0
POLYLINE
  8
0
  6
CONTINUOUS
 66
     1
 40
0.000000
 41
0.000000
  0
VERTEX
  8
0
  6
CONTINUOUS
 10
2.871000
 20
1.487200
  0
VERTEX
  8
0
  6
CONTINUOUS
 10
3.511640
 20
1.124640
  0
VERTEX
  8
0
  6
CONTINUOUS
 10
3.443440
 20
0.992640
  0
VERTEX
  8
0
  6
CONTINUOUS
 10
2.803240
 20
1.355200
  0
VERTEX
  8
0
  6
CONTINUOUS
 10
2.871000
 20
1.487200
  0
SEQEND
  8
0
  0
SOLID
  8
0
 62
    15
 10
2.803240
 20
1.355200
 11
3.443440
 21
0.992640
 12
2.747800
 22
1.214840
 13
3.388440
 23
0.852280
  0
POLYLINE
  8
0
  6
CONTINUOUS
 66
     1
 40
0.000000
 41
0.000000
  0
VERTEX
  8
0
  6
CONTINUOUS
 10
2.803240
 20
1.355200
  0
VERTEX
  8
0
  6
CONTINUOUS
 10
3.443440
 20
0.992640
  0
VERTEX
  8
0
  6
CONTINUOUS
 10
3.388440
 20
0.852280
  0
VERTEX
  8
0
  6
CONTINUOUS
 10
2.747800
 20
1.214840
  0
VERTEX
  8
0
  6
CONTINUOUS
 10
2.803240
 20
1.355200
  0
SEQEND
  8
0
  0
SOLID
  8
0
 62
    15
 10
2.747800
 20
1.214840
 11
3.388440
 21
0.852280
 12
2.706440
 22
1.067000
 13
3.347080
 23
0.704440
  0
POLYLINE
  8
0
  6
CONTINUOUS
 66
     1
 40
0.000000
 41
0.000000
  0
VERTEX
  8
0
  6
CONTINUOUS
 10
2.747800
 20
1.214840
  0
VERTEX
  8
0
  6
CONTINUOUS
 10
3.388440
 20
0.852280
  0
VERTEX
  8
0
  6
CONTINUOUS
 10
3.347080
 20
0.704440
  0
VERTEX
  8
0
  6
CONTINUOUS
 10
2.706440
 20
1.067000
  0
VERTEX
  8
0
  6
CONTINUOUS
 10
2.747800
 20
1.214840
  0
SEQEND
  8
0
  0
SOLID
  8
0
 62
    15
 10
2.706440
 20
1.067000
 11
3.347080
 21
0.704440
 12
2.679600
 22
0.911680
 13
3.320240
 23
0.549120
  0
POLYLINE
  8
0
  6
CONTINUOUS
 66
     1
 40
0.000000
 41
0.000000
  0
VERTEX
  8
0
  6
CONTINUOUS
 10
2.706440
 20
1.067000
  0
VERTEX
  8
0
  6
CONTINUOUS
 10
3.347080
 20
0.704440
  0
VERTEX
  8
0
  6
CONTINUOUS
 10
3.320240
 20
0.549120
  0
VERTEX
  8
0
  6
CONTINUOUS
 10
2.679600
 20
0.911680
  0
VERTEX
  8
0
  6
CONTINUOUS
 10
2.706440
 20
1.067000
  0
SEQEND
  8
0
  0
SOLID
  8
0
 62
    15
 10
2.679600
 20
0.911680
 11
3.320240
 21
0.549120
 12
2.669040
 22
0.750200
 13
3.309680
 23
0.387640
  0
POLYLINE
  8
0
  6
CONTINUOUS
 66
     1
 40
0.000000
 41
0.000000
  0
VERTEX
  8
0
  6
CONTINUOUS
 10
2.679600
 20
0.911680
  0
VERTEX
  8
0
  6
CONTINUOUS
 10
3.320240
 20
0.549120
  0
VERTEX
  8
0
  6
CONTINUOUS
 10
3.309680
 20
0.387640
  0
VERTEX
  8
0
  6
CONTINUOUS
 10
2.669040
 20
0.750200
  0
VERTEX
  8
0
  6
CONTINUOUS
 10
2.679600
 20
0.911680
  0
SEQEND
  8
0
  0
SOLID
  8
0
 62
    15
 10
2.669040
 20
0.750200
 11
3.309680
 21
0.387640
 12
2.669040
 22
0.746680
 13
3.309680
 23
0.384120
  0
POLYLINE
  8
0
  6
CONTINUOUS
 66
     1
 40
0.000000
 41
0.000000
  0
VERTEX
  8
0
  6
CONTINUOUS
 10
2.669040
 20
0.750200
  0
VERTEX
  8
0
  6
CONTINUOUS
 10
3.309680
 20
0.387640
  0
VERTEX
  8
0
  6
CONTINUOUS
 10
3.309680
 20
0.384120
  0
VERTEX
  8
0
  6
CONTINUOUS
 10
2.669040
 20
0.746680
  0
VERTEX
  8
0
  6
CONTINUOUS
 10
2.669040
 20
0.750200
  0
SEQEND
  8
0
  0
POLYLINE
  8
0
  6
CONTINUOUS
 66
     1
 40
0.000000
 41
0.000000
  0
VERTEX
  8
0
  6
CONTINUOUS
 10
2.669040
 20
0.746680
  0
VERTEX
  8
0
  6
CONTINUOUS
 10
2.225520
 20
0.746680
  0
VERTEX
  8
0
  6
CONTINUOUS
 10
2.225520
 20
1.292720
  0
VERTEX
  8
0
  6
CONTINUOUS
 10
3.655080
 20
2.721840
  0
VERTEX
  8
0
  6
CONTINUOUS
 10
4.164600
 20
2.721840
  0
VERTEX
  8
0
  6
CONTINUOUS
 10
4.164600
 20
2.252360
  0
VERTEX
  8
0
  6
CONTINUOUS
 10
4.024680
 20
2.244000
  0
VERTEX
  8
0
  6
CONTINUOUS
 10
3.886080
 20
2.222000
  0
VERTEX
  8
0
  6
CONTINUOUS
 10
3.750120
 20
2.186360
  0
VERTEX
  8
0
  6
CONTINUOUS
 10
3.617240
 20
2.138400
  0
VERTEX
  8
0
  6
CONTINUOUS
 10
3.488760
 20
2.078120
  0
VERTEX
  8
0
  6
CONTINUOUS
 10
3.366440
 20
2.005960
  0
VERTEX
  8
0
  6
CONTINUOUS
 10
3.249840
 20
1.922800
  0
VERTEX
  8
0
  6
CONTINUOUS
 10
3.141160
 20
1.828640
  0
VERTEX
  8
0
  6
CONTINUOUS
 10
3.041280
 20
1.724360
  0
VERTEX
  8
0
  6
CONTINUOUS
 10
2.950640
 20
1.610400
  0
VERTEX
  8
0
  6
CONTINUOUS
 10
2.871000
 20
1.487200
  0
VERTEX
  8
0
  6
CONTINUOUS
 10
2.803240
 20
1.355200
  0
VERTEX
  8
0
  6
CONTINUOUS
 10
2.747800
 20
1.214840
  0
VERTEX
  8
0
  6
CONTINUOUS
 10
2.706440
 20
1.067000
  0
VERTEX
  8
0
  6
CONTINUOUS
 10
2.679600
 20
0.911680
  0
VERTEX
  8
0
  6
CONTINUOUS
 10
2.669040
 20
0.750200
  0
VERTEX
  8
0
  6
CONTINUOUS
 10
2.669040
 20
0.746680
  0
SEQEND
  8
0
  0
TEXT
  8
0
 10
3.796320
 20
0.573760
 40
0.138141
  1
BA  391
 41
1.000000
  7
SN0
 71
     0
 72
     5
 11
4.387695
 21
0.573760
  0
TEXT
  8
0
 10
3.548160
 20
0.381920
 40
0.138141
  1
11/16" x 2-3/4"
 41
1.000000
  7
SN0
 71
     0
 72
     5
 11
4.636230
 21
0.381920
  0
ENDSEC
  0
EOF
