  0
SECTION
  2
HEADER
  9
$ACADVER
  1
AC1006
  9
$EXTMIN
 10
1.282160
 20
0.872520
  9
$EXTMAX
 10
7.438640
 20
6.570520
  9
$LTSCALE
 40
0.044000
  9
$PDMODE
 70
    35
  9
$PDSIZE
 40
0.035200
  0
ENDSEC
  0
SECTION
  2
TABLES
  0
TABLE
  2
LTYPE
 70
     9
  0
LTYPE
  2
CONTINUOUS
 70
    64
  3
Solid line
 72
    65
 73
     0
 40
0.000000
  0
LTYPE
  2
DASHED
 70
    64
  3
__ __ __ __ __ __ __ __ __ __ __ __ __ __ __
 72
    65
 73
     2
 40
0.000330
 49
0.000220
 49
-0.000110
  0
LTYPE
  2
HIDDEN
 70
    64
  3
 _ _ _ _ _ _ _ _ _ _ _ _ _ _ _ _ _ _ _ _ _ _
 72
    65
 73
     2
 40
0.000165
 49
0.000110
 49
-0.000055
  0
LTYPE
  2
CENTER
 70
    64
  3
____ _ ____ _ ____ _ ____ _ ____ _ ____ _ ____
 72
    65
 73
     4
 40
0.000880
 49
0.000550
 49
-0.000110
 49
0.000110
 49
-0.000110
  0
LTYPE
  2
PHANTOM
 70
    64
  3
_____ _ _ _____ _ _ _____ _ _ _____ _ _ ____
 72
    65
 73
     6
 40
0.001100
 49
0.000550
 49
-0.000110
 49
0.000110
 49
-0.000110
 49
0.000110
 49
-0.000110
  0
LTYPE
  2
DOT
 70
    64
  3
...............................................
 72
    65
 73
     2
 40
0.000110
 49
0.000000
 49
-0.000110
  0
LTYPE
  2
DASHDOT
 70
    64
  3
__ . __ . __ . __ . __ . __ . __ . __ . __ . __
 72
    65
 73
     4
 40
0.000440
 49
0.000220
 49
-0.000110
 49
0.000000
 49
-0.000110
  0
LTYPE
  2
BORDER
 70
    64
  3
__ __ . __ __ . __ __ . __ __ . __ __ . __ __
 72
    65
 73
     6
 40
0.000770
 49
0.000220
 49
-0.000110
 49
0.000220
 49
-0.000110
 49
0.000000
 49
-0.000110
  0
LTYPE
  2
DIVIDE
 70
    64
  3
__ . . __ . . __ . . __ . . __ . . __ . . __
 72
    65
 73
     6
 40
0.000550
 49
0.000220
 49
-0.000110
 49
0.000000
 49
-0.000110
 49
0.000000
 49
-0.000110
  0
LTYPE
  2
DOTDOT
 70
    64
  3
 . .  . .  . .  . .  . .  . . 
 72
    65
 73
     5
 40
0.000242
 49
-0.000110
 49
0.000000
 49
-0.000110
 49
0.000000
 49
-0.000110
  0
ENDTAB
  0
TABLE
  2
STYLE
 70
     4
  0
STYLE
 70
     0
  2
SN0
 40
0.000000
 41
0.000440
 50
0.000000
 71
     0
 42
0.000000
  3
ROMAND
  0
STYLE
 70
    68
  2
SV0
 40
0.000000
 41
0.000440
 50
0.000000
 71
     0
 42
0.000000
  3
ROMAND
  0
STYLE
 70
     0
  2
SN1
 40
0.000000
 41
0.000440
 50
0.000000
 71
     0
 42
0.000000
  3
ROMAND
  0
STYLE
 70
    68
  2
SV1
 40
0.000000
 41
0.000440
 50
0.000000
 71
     0
 42
0.000000
  3
ROMAND
  0
ENDTAB
  0
TABLE
  2
LAYER
 70
     3
  0
LAYER
  2
FOREGROUND
 70
    64
 62
     7
  6
CONTINUOUS
  0
LAYER
  2
BACKGROUND
 70
    65
 62
    -7
  6
CONTINUOUS
  0
LAYER
  2
0
 70
    64
 62
     7
  6
CONTINUOUS
  0
ENDTAB
  0
ENDSEC
  0
SECTION
  2
ENTITIES
  0
POLYLINE
  8
FOREGROUND
  6
CONTINUOUS
 66
     1
 40
0.000000
 41
0.000000
  0
VERTEX
  8
FOREGROUND
  6
CONTINUOUS
 10
0.000000
 20
7.443040
  0
VERTEX
  8
FOREGROUND
  6
CONTINUOUS
 10
8.499920
 20
7.443040
  0
VERTEX
  8
FOREGROUND
  6
CONTINUOUS
 10
8.499920
 20
-3.556960
  0
VERTEX
  8
FOREGROUND
  6
CONTINUOUS
 10
0.000000
 20
-3.556960
  0
VERTEX
  8
FOREGROUND
  6
CONTINUOUS
 10
0.000000
 20
7.443040
  0
SEQEND
  8
0
  0
POLYLINE
  8
FOREGROUND
  6
CONTINUOUS
 66
     1
 40
0.000000
 41
0.000000
  0
VERTEX
  8
FOREGROUND
  6
CONTINUOUS
 10
0.000000
 20
7.443040
  0
VERTEX
  8
FOREGROUND
  6
CONTINUOUS
 10
8.499920
 20
7.443040
  0
VERTEX
  8
FOREGROUND
  6
CONTINUOUS
 10
8.499920
 20
-3.556960
  0
VERTEX
  8
FOREGROUND
  6
CONTINUOUS
 10
0.000000
 20
-3.556960
  0
VERTEX
  8
FOREGROUND
  6
CONTINUOUS
 10
0.000000
 20
7.443040
  0
SEQEND
  8
0
  0
SOLID
  8
0
 62
    15
 10
6.894360
 20
2.103640
 11
6.910640
 21
2.859120
 12
6.994680
 22
2.024000
 13
7.011400
 23
2.779480
  0
POLYLINE
  8
0
  6
CONTINUOUS
 66
     1
 40
0.000000
 41
0.000000
  0
VERTEX
  8
0
  6
CONTINUOUS
 10
6.894360
 20
2.103640
  0
VERTEX
  8
0
  6
CONTINUOUS
 10
6.910640
 20
2.859120
  0
VERTEX
  8
0
  6
CONTINUOUS
 10
7.011400
 20
2.779480
  0
VERTEX
  8
0
  6
CONTINUOUS
 10
6.994680
 20
2.024000
  0
VERTEX
  8
0
  6
CONTINUOUS
 10
6.894360
 20
2.103640
  0
SEQEND
  8
0
  0
SOLID
  8
0
 62
    15
 10
1.283040
 20
2.362360
 11
1.299760
 21
3.117400
 12
5.973000
 22
2.362360
 13
5.989720
 23
3.117400
  0
POLYLINE
  8
0
  6
CONTINUOUS
 66
     1
 40
0.000000
 41
0.000000
  0
VERTEX
  8
0
  6
CONTINUOUS
 10
1.283040
 20
2.362360
  0
VERTEX
  8
0
  6
CONTINUOUS
 10
1.299760
 20
3.117400
  0
VERTEX
  8
0
  6
CONTINUOUS
 10
5.989720
 20
3.117400
  0
VERTEX
  8
0
  6
CONTINUOUS
 10
5.973000
 20
2.362360
  0
VERTEX
  8
0
  6
CONTINUOUS
 10
1.283040
 20
2.362360
  0
SEQEND
  8
0
  0
SOLID
  8
0
 62
    15
 10
5.996760
 20
2.365440
 11
6.013480
 21
3.120920
 12
6.062320
 22
2.362360
 13
6.079040
 23
3.117400
  0
POLYLINE
  8
0
  6
CONTINUOUS
 66
     1
 40
0.000000
 41
0.000000
  0
VERTEX
  8
0
  6
CONTINUOUS
 10
5.996760
 20
2.365440
  0
VERTEX
  8
0
  6
CONTINUOUS
 10
6.013480
 20
3.120920
  0
VERTEX
  8
0
  6
CONTINUOUS
 10
6.079040
 20
3.117400
  0
VERTEX
  8
0
  6
CONTINUOUS
 10
6.062320
 20
2.362360
  0
VERTEX
  8
0
  6
CONTINUOUS
 10
5.996760
 20
2.365440
  0
SEQEND
  8
0
  0
SOLID
  8
0
 62
    15
 10
6.062320
 20
2.362360
 11
6.079040
 21
3.117400
 12
6.142840
 22
2.355320
 13
6.159560
 23
3.110800
  0
POLYLINE
  8
0
  6
CONTINUOUS
 66
     1
 40
0.000000
 41
0.000000
  0
VERTEX
  8
0
  6
CONTINUOUS
 10
6.062320
 20
2.362360
  0
VERTEX
  8
0
  6
CONTINUOUS
 10
6.079040
 20
3.117400
  0
VERTEX
  8
0
  6
CONTINUOUS
 10
6.159560
 20
3.110800
  0
VERTEX
  8
0
  6
CONTINUOUS
 10
6.142840
 20
2.355320
  0
VERTEX
  8
0
  6
CONTINUOUS
 10
6.062320
 20
2.362360
  0
SEQEND
  8
0
  0
SOLID
  8
0
 62
    15
 10
6.142840
 20
2.355320
 11
6.159560
 21
3.110800
 12
6.235680
 22
2.343440
 13
6.252400
 23
3.098920
  0
POLYLINE
  8
0
  6
CONTINUOUS
 66
     1
 40
0.000000
 41
0.000000
  0
VERTEX
  8
0
  6
CONTINUOUS
 10
6.142840
 20
2.355320
  0
VERTEX
  8
0
  6
CONTINUOUS
 10
6.159560
 20
3.110800
  0
VERTEX
  8
0
  6
CONTINUOUS
 10
6.252400
 20
3.098920
  0
VERTEX
  8
0
  6
CONTINUOUS
 10
6.235680
 20
2.343440
  0
VERTEX
  8
0
  6
CONTINUOUS
 10
6.142840
 20
2.355320
  0
SEQEND
  8
0
  0
SOLID
  8
0
 62
    15
 10
6.235680
 20
2.343440
 11
6.252400
 21
3.098920
 12
6.338200
 22
2.325840
 13
6.354480
 23
3.081320
  0
POLYLINE
  8
0
  6
CONTINUOUS
 66
     1
 40
0.000000
 41
0.000000
  0
VERTEX
  8
0
  6
CONTINUOUS
 10
6.235680
 20
2.343440
  0
VERTEX
  8
0
  6
CONTINUOUS
 10
6.252400
 20
3.098920
  0
VERTEX
  8
0
  6
CONTINUOUS
 10
6.354480
 20
3.081320
  0
VERTEX
  8
0
  6
CONTINUOUS
 10
6.338200
 20
2.325840
  0
VERTEX
  8
0
  6
CONTINUOUS
 10
6.235680
 20
2.343440
  0
SEQEND
  8
0
  0
SOLID
  8
0
 62
    15
 10
6.338200
 20
2.325840
 11
6.354480
 21
3.081320
 12
6.447320
 22
2.300760
 13
6.463600
 23
3.056240
  0
POLYLINE
  8
0
  6
CONTINUOUS
 66
     1
 40
0.000000
 41
0.000000
  0
VERTEX
  8
0
  6
CONTINUOUS
 10
6.338200
 20
2.325840
  0
VERTEX
  8
0
  6
CONTINUOUS
 10
6.354480
 20
3.081320
  0
VERTEX
  8
0
  6
CONTINUOUS
 10
6.463600
 20
3.056240
  0
VERTEX
  8
0
  6
CONTINUOUS
 10
6.447320
 20
2.300760
  0
VERTEX
  8
0
  6
CONTINUOUS
 10
6.338200
 20
2.325840
  0
SEQEND
  8
0
  0
SOLID
  8
0
 62
    15
 10
6.447320
 20
2.300760
 11
6.463600
 21
3.056240
 12
6.559960
 22
2.267320
 13
6.576680
 23
3.022800
  0
POLYLINE
  8
0
  6
CONTINUOUS
 66
     1
 40
0.000000
 41
0.000000
  0
VERTEX
  8
0
  6
CONTINUOUS
 10
6.447320
 20
2.300760
  0
VERTEX
  8
0
  6
CONTINUOUS
 10
6.463600
 20
3.056240
  0
VERTEX
  8
0
  6
CONTINUOUS
 10
6.576680
 20
3.022800
  0
VERTEX
  8
0
  6
CONTINUOUS
 10
6.559960
 20
2.267320
  0
VERTEX
  8
0
  6
CONTINUOUS
 10
6.447320
 20
2.300760
  0
SEQEND
  8
0
  0
SOLID
  8
0
 62
    15
 10
6.559960
 20
2.267320
 11
6.576680
 21
3.022800
 12
6.674360
 22
2.224200
 13
6.690640
 23
2.979240
  0
POLYLINE
  8
0
  6
CONTINUOUS
 66
     1
 40
0.000000
 41
0.000000
  0
VERTEX
  8
0
  6
CONTINUOUS
 10
6.559960
 20
2.267320
  0
VERTEX
  8
0
  6
CONTINUOUS
 10
6.576680
 20
3.022800
  0
VERTEX
  8
0
  6
CONTINUOUS
 10
6.690640
 20
2.979240
  0
VERTEX
  8
0
  6
CONTINUOUS
 10
6.674360
 20
2.224200
  0
VERTEX
  8
0
  6
CONTINUOUS
 10
6.559960
 20
2.267320
  0
SEQEND
  8
0
  0
SOLID
  8
0
 62
    15
 10
6.674360
 20
2.224200
 11
6.690640
 21
2.979240
 12
6.786560
 22
2.170080
 13
6.802840
 23
2.925120
  0
POLYLINE
  8
0
  6
CONTINUOUS
 66
     1
 40
0.000000
 41
0.000000
  0
VERTEX
  8
0
  6
CONTINUOUS
 10
6.674360
 20
2.224200
  0
VERTEX
  8
0
  6
CONTINUOUS
 10
6.690640
 20
2.979240
  0
VERTEX
  8
0
  6
CONTINUOUS
 10
6.802840
 20
2.925120
  0
VERTEX
  8
0
  6
CONTINUOUS
 10
6.786560
 20
2.170080
  0
VERTEX
  8
0
  6
CONTINUOUS
 10
6.674360
 20
2.224200
  0
SEQEND
  8
0
  0
SOLID
  8
0
 62
    15
 10
6.786560
 20
2.170080
 11
6.802840
 21
2.925120
 12
6.894360
 22
2.103640
 13
6.910640
 23
2.859120
  0
POLYLINE
  8
0
  6
CONTINUOUS
 66
     1
 40
0.000000
 41
0.000000
  0
VERTEX
  8
0
  6
CONTINUOUS
 10
6.786560
 20
2.170080
  0
VERTEX
  8
0
  6
CONTINUOUS
 10
6.802840
 20
2.925120
  0
VERTEX
  8
0
  6
CONTINUOUS
 10
6.910640
 20
2.859120
  0
VERTEX
  8
0
  6
CONTINUOUS
 10
6.894360
 20
2.103640
  0
VERTEX
  8
0
  6
CONTINUOUS
 10
6.786560
 20
2.170080
  0
SEQEND
  8
0
  0
SOLID
  8
0
 62
    15
 10
5.949680
 20
2.366320
 11
5.965960
 21
3.121800
 12
5.970800
 22
2.365880
 13
5.987520
 23
3.121360
  0
POLYLINE
  8
0
  6
CONTINUOUS
 66
     1
 40
0.000000
 41
0.000000
  0
VERTEX
  8
0
  6
CONTINUOUS
 10
5.949680
 20
2.366320
  0
VERTEX
  8
0
  6
CONTINUOUS
 10
5.965960
 20
3.121800
  0
VERTEX
  8
0
  6
CONTINUOUS
 10
5.987520
 20
3.121360
  0
VERTEX
  8
0
  6
CONTINUOUS
 10
5.970800
 20
2.365880
  0
VERTEX
  8
0
  6
CONTINUOUS
 10
5.949680
 20
2.366320
  0
SEQEND
  8
0
  0
SOLID
  8
0
 62
    15
 10
6.994680
 20
2.024000
 11
7.011400
 21
2.779480
 12
7.041320
 22
1.979120
 13
7.057600
 23
2.734160
  0
POLYLINE
  8
0
  6
CONTINUOUS
 66
     1
 40
0.000000
 41
0.000000
  0
VERTEX
  8
0
  6
CONTINUOUS
 10
6.994680
 20
2.024000
  0
VERTEX
  8
0
  6
CONTINUOUS
 10
7.011400
 20
2.779480
  0
VERTEX
  8
0
  6
CONTINUOUS
 10
7.057600
 20
2.734160
  0
VERTEX
  8
0
  6
CONTINUOUS
 10
7.041320
 20
1.979120
  0
VERTEX
  8
0
  6
CONTINUOUS
 10
6.994680
 20
2.024000
  0
SEQEND
  8
0
  0
SOLID
  8
0
 62
    15
 10
7.041320
 20
1.979120
 11
7.057600
 21
2.734160
 12
7.084880
 22
1.929840
 13
7.101600
 23
2.685320
  0
POLYLINE
  8
0
  6
CONTINUOUS
 66
     1
 40
0.000000
 41
0.000000
  0
VERTEX
  8
0
  6
CONTINUOUS
 10
7.041320
 20
1.979120
  0
VERTEX
  8
0
  6
CONTINUOUS
 10
7.057600
 20
2.734160
  0
VERTEX
  8
0
  6
CONTINUOUS
 10
7.101600
 20
2.685320
  0
VERTEX
  8
0
  6
CONTINUOUS
 10
7.084880
 20
1.929840
  0
VERTEX
  8
0
  6
CONTINUOUS
 10
7.041320
 20
1.979120
  0
SEQEND
  8
0
  0
SOLID
  8
0
 62
    15
 10
7.125360
 20
1.877040
 11
7.142080
 21
2.632520
 12
7.162320
 22
1.820280
 13
7.178600
 23
2.575760
  0
POLYLINE
  8
0
  6
CONTINUOUS
 66
     1
 40
0.000000
 41
0.000000
  0
VERTEX
  8
0
  6
CONTINUOUS
 10
7.125360
 20
1.877040
  0
VERTEX
  8
0
  6
CONTINUOUS
 10
7.142080
 20
2.632520
  0
VERTEX
  8
0
  6
CONTINUOUS
 10
7.178600
 20
2.575760
  0
VERTEX
  8
0
  6
CONTINUOUS
 10
7.162320
 20
1.820280
  0
VERTEX
  8
0
  6
CONTINUOUS
 10
7.125360
 20
1.877040
  0
SEQEND
  8
0
  0
SOLID
  8
0
 62
    15
 10
7.084880
 20
1.929840
 11
7.101600
 21
2.685320
 12
7.125360
 22
1.877040
 13
7.142080
 23
2.632520
  0
POLYLINE
  8
0
  6
CONTINUOUS
 66
     1
 40
0.000000
 41
0.000000
  0
VERTEX
  8
0
  6
CONTINUOUS
 10
7.084880
 20
1.929840
  0
VERTEX
  8
0
  6
CONTINUOUS
 10
7.101600
 20
2.685320
  0
VERTEX
  8
0
  6
CONTINUOUS
 10
7.142080
 20
2.632520
  0
VERTEX
  8
0
  6
CONTINUOUS
 10
7.125360
 20
1.877040
  0
VERTEX
  8
0
  6
CONTINUOUS
 10
7.084880
 20
1.929840
  0
SEQEND
  8
0
  0
SOLID
  8
0
 62
    15
 10
7.162320
 20
1.820280
 11
7.178600
 21
2.575760
 12
7.194880
 22
1.759120
 13
7.211600
 23
2.514600
  0
POLYLINE
  8
0
  6
CONTINUOUS
 66
     1
 40
0.000000
 41
0.000000
  0
VERTEX
  8
0
  6
CONTINUOUS
 10
7.162320
 20
1.820280
  0
VERTEX
  8
0
  6
CONTINUOUS
 10
7.178600
 20
2.575760
  0
VERTEX
  8
0
  6
CONTINUOUS
 10
7.211600
 20
2.514600
  0
VERTEX
  8
0
  6
CONTINUOUS
 10
7.194880
 20
1.759120
  0
VERTEX
  8
0
  6
CONTINUOUS
 10
7.162320
 20
1.820280
  0
SEQEND
  8
0
  0
SOLID
  8
0
 62
    15
 10
7.194880
 20
1.759120
 11
7.211600
 21
2.514600
 12
7.223480
 22
1.693560
 13
7.240200
 23
2.448600
  0
POLYLINE
  8
0
  6
CONTINUOUS
 66
     1
 40
0.000000
 41
0.000000
  0
VERTEX
  8
0
  6
CONTINUOUS
 10
7.194880
 20
1.759120
  0
VERTEX
  8
0
  6
CONTINUOUS
 10
7.211600
 20
2.514600
  0
VERTEX
  8
0
  6
CONTINUOUS
 10
7.240200
 20
2.448600
  0
VERTEX
  8
0
  6
CONTINUOUS
 10
7.223480
 20
1.693560
  0
VERTEX
  8
0
  6
CONTINUOUS
 10
7.194880
 20
1.759120
  0
SEQEND
  8
0
  0
SOLID
  8
0
 62
    15
 10
7.223480
 20
1.693560
 11
7.240200
 21
2.448600
 12
7.247240
 22
1.623160
 13
7.263960
 23
2.378640
  0
POLYLINE
  8
0
  6
CONTINUOUS
 66
     1
 40
0.000000
 41
0.000000
  0
VERTEX
  8
0
  6
CONTINUOUS
 10
7.223480
 20
1.693560
  0
VERTEX
  8
0
  6
CONTINUOUS
 10
7.240200
 20
2.448600
  0
VERTEX
  8
0
  6
CONTINUOUS
 10
7.263960
 20
2.378640
  0
VERTEX
  8
0
  6
CONTINUOUS
 10
7.247240
 20
1.623160
  0
VERTEX
  8
0
  6
CONTINUOUS
 10
7.223480
 20
1.693560
  0
SEQEND
  8
0
  0
SOLID
  8
0
 62
    15
 10
7.247240
 20
1.623160
 11
7.263960
 21
2.378640
 12
7.266160
 22
1.548360
 13
7.282880
 23
2.303840
  0
POLYLINE
  8
0
  6
CONTINUOUS
 66
     1
 40
0.000000
 41
0.000000
  0
VERTEX
  8
0
  6
CONTINUOUS
 10
7.247240
 20
1.623160
  0
VERTEX
  8
0
  6
CONTINUOUS
 10
7.263960
 20
2.378640
  0
VERTEX
  8
0
  6
CONTINUOUS
 10
7.282880
 20
2.303840
  0
VERTEX
  8
0
  6
CONTINUOUS
 10
7.266160
 20
1.548360
  0
VERTEX
  8
0
  6
CONTINUOUS
 10
7.247240
 20
1.623160
  0
SEQEND
  8
0
  0
SOLID
  8
0
 62
    15
 10
7.266160
 20
1.548360
 11
7.282880
 21
2.303840
 12
7.279800
 22
1.468720
 13
7.296520
 23
2.224200
  0
POLYLINE
  8
0
  6
CONTINUOUS
 66
     1
 40
0.000000
 41
0.000000
  0
VERTEX
  8
0
  6
CONTINUOUS
 10
7.266160
 20
1.548360
  0
VERTEX
  8
0
  6
CONTINUOUS
 10
7.282880
 20
2.303840
  0
VERTEX
  8
0
  6
CONTINUOUS
 10
7.296520
 20
2.224200
  0
VERTEX
  8
0
  6
CONTINUOUS
 10
7.279800
 20
1.468720
  0
VERTEX
  8
0
  6
CONTINUOUS
 10
7.266160
 20
1.548360
  0
SEQEND
  8
0
  0
SOLID
  8
0
 62
    15
 10
7.279800
 20
1.468720
 11
7.296520
 21
2.224200
 12
7.287720
 22
1.384240
 13
7.304440
 23
2.139720
  0
POLYLINE
  8
0
  6
CONTINUOUS
 66
     1
 40
0.000000
 41
0.000000
  0
VERTEX
  8
0
  6
CONTINUOUS
 10
7.279800
 20
1.468720
  0
VERTEX
  8
0
  6
CONTINUOUS
 10
7.296520
 20
2.224200
  0
VERTEX
  8
0
  6
CONTINUOUS
 10
7.304440
 20
2.139720
  0
VERTEX
  8
0
  6
CONTINUOUS
 10
7.287720
 20
1.384240
  0
VERTEX
  8
0
  6
CONTINUOUS
 10
7.279800
 20
1.468720
  0
SEQEND
  8
0
  0
SOLID
  8
0
 62
    15
 10
5.970800
 20
2.365880
 11
5.987520
 21
3.121360
 12
5.996760
 22
2.365440
 13
6.013480
 23
3.120920
  0
POLYLINE
  8
0
  6
CONTINUOUS
 66
     1
 40
0.000000
 41
0.000000
  0
VERTEX
  8
0
  6
CONTINUOUS
 10
5.970800
 20
2.365880
  0
VERTEX
  8
0
  6
CONTINUOUS
 10
5.987520
 20
3.121360
  0
VERTEX
  8
0
  6
CONTINUOUS
 10
6.013480
 20
3.120920
  0
VERTEX
  8
0
  6
CONTINUOUS
 10
5.996760
 20
2.365440
  0
VERTEX
  8
0
  6
CONTINUOUS
 10
5.970800
 20
2.365880
  0
SEQEND
  8
0
  0
POLYLINE
  8
0
  6
CONTINUOUS
 66
     1
 40
0.000000
 41
0.000000
  0
VERTEX
  8
0
  6
CONTINUOUS
 10
5.949680
 20
2.366320
  0
VERTEX
  8
0
  6
CONTINUOUS
 10
5.970800
 20
2.365880
  0
VERTEX
  8
0
  6
CONTINUOUS
 10
5.996760
 20
2.365440
  0
VERTEX
  8
0
  6
CONTINUOUS
 10
6.062320
 20
2.362360
  0
VERTEX
  8
0
  6
CONTINUOUS
 10
6.142840
 20
2.355320
  0
VERTEX
  8
0
  6
CONTINUOUS
 10
6.235680
 20
2.343440
  0
VERTEX
  8
0
  6
CONTINUOUS
 10
6.338200
 20
2.325840
  0
VERTEX
  8
0
  6
CONTINUOUS
 10
6.447320
 20
2.300760
  0
VERTEX
  8
0
  6
CONTINUOUS
 10
6.559960
 20
2.267320
  0
VERTEX
  8
0
  6
CONTINUOUS
 10
6.674360
 20
2.224200
  0
VERTEX
  8
0
  6
CONTINUOUS
 10
6.786560
 20
2.170080
  0
VERTEX
  8
0
  6
CONTINUOUS
 10
6.894360
 20
2.103640
  0
VERTEX
  8
0
  6
CONTINUOUS
 10
6.994680
 20
2.024000
  0
VERTEX
  8
0
  6
CONTINUOUS
 10
7.041320
 20
1.979120
  0
VERTEX
  8
0
  6
CONTINUOUS
 10
7.084880
 20
1.929840
  0
VERTEX
  8
0
  6
CONTINUOUS
 10
7.125360
 20
1.877040
  0
VERTEX
  8
0
  6
CONTINUOUS
 10
7.162320
 20
1.820280
  0
VERTEX
  8
0
  6
CONTINUOUS
 10
7.194880
 20
1.759120
  0
VERTEX
  8
0
  6
CONTINUOUS
 10
7.223480
 20
1.693560
  0
VERTEX
  8
0
  6
CONTINUOUS
 10
7.247240
 20
1.623160
  0
VERTEX
  8
0
  6
CONTINUOUS
 10
7.266160
 20
1.548360
  0
VERTEX
  8
0
  6
CONTINUOUS
 10
7.279800
 20
1.468720
  0
VERTEX
  8
0
  6
CONTINUOUS
 10
7.287720
 20
1.384240
  0
VERTEX
  8
0
  6
CONTINUOUS
 10
7.282000
 20
1.378520
  0
VERTEX
  8
0
  6
CONTINUOUS
 10
1.283040
 20
1.378520
  0
VERTEX
  8
0
  6
CONTINUOUS
 10
1.283040
 20
2.362360
  0
VERTEX
  8
0
  6
CONTINUOUS
 10
5.973000
 20
2.362360
  0
VERTEX
  8
0
  6
CONTINUOUS
 10
5.949680
 20
2.366320
  0
SEQEND
  8
0
  0
SOLID
  8
0
 62
    15
 10
1.286120
 20
2.360160
 11
1.285680
 21
3.124000
 12
1.286120
 22
2.364120
 13
1.285680
 23
3.127960
  0
POLYLINE
  8
0
  6
CONTINUOUS
 66
     1
 40
0.000000
 41
0.000000
  0
VERTEX
  8
0
  6
CONTINUOUS
 10
1.286120
 20
2.360160
  0
VERTEX
  8
0
  6
CONTINUOUS
 10
1.285680
 20
3.124000
  0
VERTEX
  8
0
  6
CONTINUOUS
 10
1.285680
 20
3.127960
  0
VERTEX
  8
0
  6
CONTINUOUS
 10
1.286120
 20
2.364120
  0
VERTEX
  8
0
  6
CONTINUOUS
 10
1.286120
 20
2.360160
  0
SEQEND
  8
0
  0
SOLID
  8
0
 62
    15
 10
2.674320
 20
3.345320
 11
2.673440
 21
4.109160
 12
2.695440
 22
3.345320
 13
2.694560
 23
4.109160
  0
POLYLINE
  8
0
  6
CONTINUOUS
 66
     1
 40
0.000000
 41
0.000000
  0
VERTEX
  8
0
  6
CONTINUOUS
 10
2.674320
 20
3.345320
  0
VERTEX
  8
0
  6
CONTINUOUS
 10
2.673440
 20
4.109160
  0
VERTEX
  8
0
  6
CONTINUOUS
 10
2.694560
 20
4.109160
  0
VERTEX
  8
0
  6
CONTINUOUS
 10
2.695440
 20
3.345320
  0
VERTEX
  8
0
  6
CONTINUOUS
 10
2.674320
 20
3.345320
  0
SEQEND
  8
0
  0
SOLID
  8
0
 62
    15
 10
2.695440
 20
3.345320
 11
2.694560
 21
4.109160
 12
2.721400
 22
3.344440
 13
2.720960
 23
4.108280
  0
POLYLINE
  8
0
  6
CONTINUOUS
 66
     1
 40
0.000000
 41
0.000000
  0
VERTEX
  8
0
  6
CONTINUOUS
 10
2.695440
 20
3.345320
  0
VERTEX
  8
0
  6
CONTINUOUS
 10
2.694560
 20
4.109160
  0
VERTEX
  8
0
  6
CONTINUOUS
 10
2.720960
 20
4.108280
  0
VERTEX
  8
0
  6
CONTINUOUS
 10
2.721400
 20
3.344440
  0
VERTEX
  8
0
  6
CONTINUOUS
 10
2.695440
 20
3.345320
  0
SEQEND
  8
0
  0
SOLID
  8
0
 62
    15
 10
2.721400
 20
3.344440
 11
2.720960
 21
4.108280
 12
2.786960
 22
3.341360
 13
2.786080
 23
4.105200
  0
POLYLINE
  8
0
  6
CONTINUOUS
 66
     1
 40
0.000000
 41
0.000000
  0
VERTEX
  8
0
  6
CONTINUOUS
 10
2.721400
 20
3.344440
  0
VERTEX
  8
0
  6
CONTINUOUS
 10
2.720960
 20
4.108280
  0
VERTEX
  8
0
  6
CONTINUOUS
 10
2.786080
 20
4.105200
  0
VERTEX
  8
0
  6
CONTINUOUS
 10
2.786960
 20
3.341360
  0
VERTEX
  8
0
  6
CONTINUOUS
 10
2.721400
 20
3.344440
  0
SEQEND
  8
0
  0
SOLID
  8
0
 62
    15
 10
2.786960
 20
3.341360
 11
2.786080
 21
4.105200
 12
2.867480
 22
3.334320
 13
2.866600
 23
4.098160
  0
POLYLINE
  8
0
  6
CONTINUOUS
 66
     1
 40
0.000000
 41
0.000000
  0
VERTEX
  8
0
  6
CONTINUOUS
 10
2.786960
 20
3.341360
  0
VERTEX
  8
0
  6
CONTINUOUS
 10
2.786080
 20
4.105200
  0
VERTEX
  8
0
  6
CONTINUOUS
 10
2.866600
 20
4.098160
  0
VERTEX
  8
0
  6
CONTINUOUS
 10
2.867480
 20
3.334320
  0
VERTEX
  8
0
  6
CONTINUOUS
 10
2.786960
 20
3.341360
  0
SEQEND
  8
0
  0
SOLID
  8
0
 62
    15
 10
2.867480
 20
3.334320
 11
2.866600
 21
4.098160
 12
2.960320
 22
3.322880
 13
2.959440
 23
4.086720
  0
POLYLINE
  8
0
  6
CONTINUOUS
 66
     1
 40
0.000000
 41
0.000000
  0
VERTEX
  8
0
  6
CONTINUOUS
 10
2.867480
 20
3.334320
  0
VERTEX
  8
0
  6
CONTINUOUS
 10
2.866600
 20
4.098160
  0
VERTEX
  8
0
  6
CONTINUOUS
 10
2.959440
 20
4.086720
  0
VERTEX
  8
0
  6
CONTINUOUS
 10
2.960320
 20
3.322880
  0
VERTEX
  8
0
  6
CONTINUOUS
 10
2.867480
 20
3.334320
  0
SEQEND
  8
0
  0
SOLID
  8
0
 62
    15
 10
2.960320
 20
3.322880
 11
2.959440
 21
4.086720
 12
3.062400
 22
3.304840
 13
3.061520
 23
4.069120
  0
POLYLINE
  8
0
  6
CONTINUOUS
 66
     1
 40
0.000000
 41
0.000000
  0
VERTEX
  8
0
  6
CONTINUOUS
 10
2.960320
 20
3.322880
  0
VERTEX
  8
0
  6
CONTINUOUS
 10
2.959440
 20
4.086720
  0
VERTEX
  8
0
  6
CONTINUOUS
 10
3.061520
 20
4.069120
  0
VERTEX
  8
0
  6
CONTINUOUS
 10
3.062400
 20
3.304840
  0
VERTEX
  8
0
  6
CONTINUOUS
 10
2.960320
 20
3.322880
  0
SEQEND
  8
0
  0
SOLID
  8
0
 62
    15
 10
3.062400
 20
3.304840
 11
3.061520
 21
4.069120
 12
3.171520
 22
3.279760
 13
3.170640
 23
4.044040
  0
POLYLINE
  8
0
  6
CONTINUOUS
 66
     1
 40
0.000000
 41
0.000000
  0
VERTEX
  8
0
  6
CONTINUOUS
 10
3.062400
 20
3.304840
  0
VERTEX
  8
0
  6
CONTINUOUS
 10
3.061520
 20
4.069120
  0
VERTEX
  8
0
  6
CONTINUOUS
 10
3.170640
 20
4.044040
  0
VERTEX
  8
0
  6
CONTINUOUS
 10
3.171520
 20
3.279760
  0
VERTEX
  8
0
  6
CONTINUOUS
 10
3.062400
 20
3.304840
  0
SEQEND
  8
0
  0
SOLID
  8
0
 62
    15
 10
3.171520
 20
3.279760
 11
3.170640
 21
4.044040
 12
3.284160
 22
3.246320
 13
3.283720
 23
4.010160
  0
POLYLINE
  8
0
  6
CONTINUOUS
 66
     1
 40
0.000000
 41
0.000000
  0
VERTEX
  8
0
  6
CONTINUOUS
 10
3.171520
 20
3.279760
  0
VERTEX
  8
0
  6
CONTINUOUS
 10
3.170640
 20
4.044040
  0
VERTEX
  8
0
  6
CONTINUOUS
 10
3.283720
 20
4.010160
  0
VERTEX
  8
0
  6
CONTINUOUS
 10
3.284160
 20
3.246320
  0
VERTEX
  8
0
  6
CONTINUOUS
 10
3.171520
 20
3.279760
  0
SEQEND
  8
0
  0
SOLID
  8
0
 62
    15
 10
3.284160
 20
3.246320
 11
3.283720
 21
4.010160
 12
3.398560
 22
3.203200
 13
3.397680
 23
3.967040
  0
POLYLINE
  8
0
  6
CONTINUOUS
 66
     1
 40
0.000000
 41
0.000000
  0
VERTEX
  8
0
  6
CONTINUOUS
 10
3.284160
 20
3.246320
  0
VERTEX
  8
0
  6
CONTINUOUS
 10
3.283720
 20
4.010160
  0
VERTEX
  8
0
  6
CONTINUOUS
 10
3.397680
 20
3.967040
  0
VERTEX
  8
0
  6
CONTINUOUS
 10
3.398560
 20
3.203200
  0
VERTEX
  8
0
  6
CONTINUOUS
 10
3.284160
 20
3.246320
  0
SEQEND
  8
0
  0
SOLID
  8
0
 62
    15
 10
3.398560
 20
3.203200
 11
3.397680
 21
3.967040
 12
3.510320
 22
3.149080
 13
3.509880
 23
3.912920
  0
POLYLINE
  8
0
  6
CONTINUOUS
 66
     1
 40
0.000000
 41
0.000000
  0
VERTEX
  8
0
  6
CONTINUOUS
 10
3.398560
 20
3.203200
  0
VERTEX
  8
0
  6
CONTINUOUS
 10
3.397680
 20
3.967040
  0
VERTEX
  8
0
  6
CONTINUOUS
 10
3.509880
 20
3.912920
  0
VERTEX
  8
0
  6
CONTINUOUS
 10
3.510320
 20
3.149080
  0
VERTEX
  8
0
  6
CONTINUOUS
 10
3.398560
 20
3.203200
  0
SEQEND
  8
0
  0
SOLID
  8
0
 62
    15
 10
3.510320
 20
3.149080
 11
3.509880
 21
3.912920
 12
3.618120
 22
3.083080
 13
3.617680
 23
3.846920
  0
POLYLINE
  8
0
  6
CONTINUOUS
 66
     1
 40
0.000000
 41
0.000000
  0
VERTEX
  8
0
  6
CONTINUOUS
 10
3.510320
 20
3.149080
  0
VERTEX
  8
0
  6
CONTINUOUS
 10
3.509880
 20
3.912920
  0
VERTEX
  8
0
  6
CONTINUOUS
 10
3.617680
 20
3.846920
  0
VERTEX
  8
0
  6
CONTINUOUS
 10
3.618120
 20
3.083080
  0
VERTEX
  8
0
  6
CONTINUOUS
 10
3.510320
 20
3.149080
  0
SEQEND
  8
0
  0
SOLID
  8
0
 62
    15
 10
3.618120
 20
3.083080
 11
3.617680
 21
3.846920
 12
3.718440
 22
3.003440
 13
3.718000
 23
3.767280
  0
POLYLINE
  8
0
  6
CONTINUOUS
 66
     1
 40
0.000000
 41
0.000000
  0
VERTEX
  8
0
  6
CONTINUOUS
 10
3.618120
 20
3.083080
  0
VERTEX
  8
0
  6
CONTINUOUS
 10
3.617680
 20
3.846920
  0
VERTEX
  8
0
  6
CONTINUOUS
 10
3.718000
 20
3.767280
  0
VERTEX
  8
0
  6
CONTINUOUS
 10
3.718440
 20
3.003440
  0
VERTEX
  8
0
  6
CONTINUOUS
 10
3.618120
 20
3.083080
  0
SEQEND
  8
0
  0
SOLID
  8
0
 62
    15
 10
3.718440
 20
3.003440
 11
3.718000
 21
3.767280
 12
3.765080
 22
2.958560
 13
3.764200
 23
3.722400
  0
POLYLINE
  8
0
  6
CONTINUOUS
 66
     1
 40
0.000000
 41
0.000000
  0
VERTEX
  8
0
  6
CONTINUOUS
 10
3.718440
 20
3.003440
  0
VERTEX
  8
0
  6
CONTINUOUS
 10
3.718000
 20
3.767280
  0
VERTEX
  8
0
  6
CONTINUOUS
 10
3.764200
 20
3.722400
  0
VERTEX
  8
0
  6
CONTINUOUS
 10
3.765080
 20
2.958560
  0
VERTEX
  8
0
  6
CONTINUOUS
 10
3.718440
 20
3.003440
  0
SEQEND
  8
0
  0
SOLID
  8
0
 62
    15
 10
3.765080
 20
2.958560
 11
3.764200
 21
3.722400
 12
3.808640
 22
2.909280
 13
3.808200
 23
3.673560
  0
POLYLINE
  8
0
  6
CONTINUOUS
 66
     1
 40
0.000000
 41
0.000000
  0
VERTEX
  8
0
  6
CONTINUOUS
 10
3.765080
 20
2.958560
  0
VERTEX
  8
0
  6
CONTINUOUS
 10
3.764200
 20
3.722400
  0
VERTEX
  8
0
  6
CONTINUOUS
 10
3.808200
 20
3.673560
  0
VERTEX
  8
0
  6
CONTINUOUS
 10
3.808640
 20
2.909280
  0
VERTEX
  8
0
  6
CONTINUOUS
 10
3.765080
 20
2.958560
  0
SEQEND
  8
0
  0
SOLID
  8
0
 62
    15
 10
3.808640
 20
2.909280
 11
3.808200
 21
3.673560
 12
3.849120
 22
2.856480
 13
3.848240
 23
3.620760
  0
POLYLINE
  8
0
  6
CONTINUOUS
 66
     1
 40
0.000000
 41
0.000000
  0
VERTEX
  8
0
  6
CONTINUOUS
 10
3.808640
 20
2.909280
  0
VERTEX
  8
0
  6
CONTINUOUS
 10
3.808200
 20
3.673560
  0
VERTEX
  8
0
  6
CONTINUOUS
 10
3.848240
 20
3.620760
  0
VERTEX
  8
0
  6
CONTINUOUS
 10
3.849120
 20
2.856480
  0
VERTEX
  8
0
  6
CONTINUOUS
 10
3.808640
 20
2.909280
  0
SEQEND
  8
0
  0
SOLID
  8
0
 62
    15
 10
3.849120
 20
2.856480
 11
3.848240
 21
3.620760
 12
3.886080
 22
2.799720
 13
3.885200
 23
3.563560
  0
POLYLINE
  8
0
  6
CONTINUOUS
 66
     1
 40
0.000000
 41
0.000000
  0
VERTEX
  8
0
  6
CONTINUOUS
 10
3.849120
 20
2.856480
  0
VERTEX
  8
0
  6
CONTINUOUS
 10
3.848240
 20
3.620760
  0
VERTEX
  8
0
  6
CONTINUOUS
 10
3.885200
 20
3.563560
  0
VERTEX
  8
0
  6
CONTINUOUS
 10
3.886080
 20
2.799720
  0
VERTEX
  8
0
  6
CONTINUOUS
 10
3.849120
 20
2.856480
  0
SEQEND
  8
0
  0
SOLID
  8
0
 62
    15
 10
3.886080
 20
2.799720
 11
3.885200
 21
3.563560
 12
3.918640
 22
2.738560
 13
3.918200
 23
3.502400
  0
POLYLINE
  8
0
  6
CONTINUOUS
 66
     1
 40
0.000000
 41
0.000000
  0
VERTEX
  8
0
  6
CONTINUOUS
 10
3.886080
 20
2.799720
  0
VERTEX
  8
0
  6
CONTINUOUS
 10
3.885200
 20
3.563560
  0
VERTEX
  8
0
  6
CONTINUOUS
 10
3.918200
 20
3.502400
  0
VERTEX
  8
0
  6
CONTINUOUS
 10
3.918640
 20
2.738560
  0
VERTEX
  8
0
  6
CONTINUOUS
 10
3.886080
 20
2.799720
  0
SEQEND
  8
0
  0
SOLID
  8
0
 62
    15
 10
3.918640
 20
2.738560
 11
3.918200
 21
3.502400
 12
3.947240
 22
2.673000
 13
3.946360
 23
3.436840
  0
POLYLINE
  8
0
  6
CONTINUOUS
 66
     1
 40
0.000000
 41
0.000000
  0
VERTEX
  8
0
  6
CONTINUOUS
 10
3.918640
 20
2.738560
  0
VERTEX
  8
0
  6
CONTINUOUS
 10
3.918200
 20
3.502400
  0
VERTEX
  8
0
  6
CONTINUOUS
 10
3.946360
 20
3.436840
  0
VERTEX
  8
0
  6
CONTINUOUS
 10
3.947240
 20
2.673000
  0
VERTEX
  8
0
  6
CONTINUOUS
 10
3.918640
 20
2.738560
  0
SEQEND
  8
0
  0
SOLID
  8
0
 62
    15
 10
3.947240
 20
2.673000
 11
3.946360
 21
3.436840
 12
3.971000
 22
2.603040
 13
3.970560
 23
3.366880
  0
POLYLINE
  8
0
  6
CONTINUOUS
 66
     1
 40
0.000000
 41
0.000000
  0
VERTEX
  8
0
  6
CONTINUOUS
 10
3.947240
 20
2.673000
  0
VERTEX
  8
0
  6
CONTINUOUS
 10
3.946360
 20
3.436840
  0
VERTEX
  8
0
  6
CONTINUOUS
 10
3.970560
 20
3.366880
  0
VERTEX
  8
0
  6
CONTINUOUS
 10
3.971000
 20
2.603040
  0
VERTEX
  8
0
  6
CONTINUOUS
 10
3.947240
 20
2.673000
  0
SEQEND
  8
0
  0
SOLID
  8
0
 62
    15
 10
3.971000
 20
2.603040
 11
3.970560
 21
3.366880
 12
3.989920
 22
2.528240
 13
3.989480
 23
3.292080
  0
POLYLINE
  8
0
  6
CONTINUOUS
 66
     1
 40
0.000000
 41
0.000000
  0
VERTEX
  8
0
  6
CONTINUOUS
 10
3.971000
 20
2.603040
  0
VERTEX
  8
0
  6
CONTINUOUS
 10
3.970560
 20
3.366880
  0
VERTEX
  8
0
  6
CONTINUOUS
 10
3.989480
 20
3.292080
  0
VERTEX
  8
0
  6
CONTINUOUS
 10
3.989920
 20
2.528240
  0
VERTEX
  8
0
  6
CONTINUOUS
 10
3.971000
 20
2.603040
  0
SEQEND
  8
0
  0
SOLID
  8
0
 62
    15
 10
4.011480
 20
2.364120
 11
4.010600
 21
3.127960
 12
4.014120
 22
2.360160
 13
4.013680
 23
3.124000
  0
POLYLINE
  8
0
  6
CONTINUOUS
 66
     1
 40
0.000000
 41
0.000000
  0
VERTEX
  8
0
  6
CONTINUOUS
 10
4.011480
 20
2.364120
  0
VERTEX
  8
0
  6
CONTINUOUS
 10
4.010600
 20
3.127960
  0
VERTEX
  8
0
  6
CONTINUOUS
 10
4.013680
 20
3.124000
  0
VERTEX
  8
0
  6
CONTINUOUS
 10
4.014120
 20
2.360160
  0
VERTEX
  8
0
  6
CONTINUOUS
 10
4.011480
 20
2.364120
  0
SEQEND
  8
0
  0
SOLID
  8
0
 62
    15
 10
4.003560
 20
2.448600
 11
4.003120
 21
3.212440
 12
4.011480
 22
2.364120
 13
4.010600
 23
3.127960
  0
POLYLINE
  8
0
  6
CONTINUOUS
 66
     1
 40
0.000000
 41
0.000000
  0
VERTEX
  8
0
  6
CONTINUOUS
 10
4.003560
 20
2.448600
  0
VERTEX
  8
0
  6
CONTINUOUS
 10
4.003120
 20
3.212440
  0
VERTEX
  8
0
  6
CONTINUOUS
 10
4.010600
 20
3.127960
  0
VERTEX
  8
0
  6
CONTINUOUS
 10
4.011480
 20
2.364120
  0
VERTEX
  8
0
  6
CONTINUOUS
 10
4.003560
 20
2.448600
  0
SEQEND
  8
0
  0
SOLID
  8
0
 62
    15
 10
3.989920
 20
2.528240
 11
3.989480
 21
3.292080
 12
4.003560
 22
2.448600
 13
4.003120
 23
3.212440
  0
POLYLINE
  8
0
  6
CONTINUOUS
 66
     1
 40
0.000000
 41
0.000000
  0
VERTEX
  8
0
  6
CONTINUOUS
 10
3.989920
 20
2.528240
  0
VERTEX
  8
0
  6
CONTINUOUS
 10
3.989480
 20
3.292080
  0
VERTEX
  8
0
  6
CONTINUOUS
 10
4.003120
 20
3.212440
  0
VERTEX
  8
0
  6
CONTINUOUS
 10
4.003560
 20
2.448600
  0
VERTEX
  8
0
  6
CONTINUOUS
 10
3.989920
 20
2.528240
  0
SEQEND
  8
0
  0
SOLID
  8
0
 62
    15
 10
2.632960
 20
3.345320
 11
2.632080
 21
4.109160
 12
2.674320
 22
3.345320
 13
2.673440
 23
4.109160
  0
POLYLINE
  8
0
  6
CONTINUOUS
 66
     1
 40
0.000000
 41
0.000000
  0
VERTEX
  8
0
  6
CONTINUOUS
 10
2.632960
 20
3.345320
  0
VERTEX
  8
0
  6
CONTINUOUS
 10
2.632080
 20
4.109160
  0
VERTEX
  8
0
  6
CONTINUOUS
 10
2.673440
 20
4.109160
  0
VERTEX
  8
0
  6
CONTINUOUS
 10
2.674320
 20
3.345320
  0
VERTEX
  8
0
  6
CONTINUOUS
 10
2.632960
 20
3.345320
  0
SEQEND
  8
0
  0
SOLID
  8
0
 62
    15
 10
1.286120
 20
2.364120
 11
1.285680
 21
3.127960
 12
1.294040
 22
2.448600
 13
1.293160
 23
3.212440
  0
POLYLINE
  8
0
  6
CONTINUOUS
 66
     1
 40
0.000000
 41
0.000000
  0
VERTEX
  8
0
  6
CONTINUOUS
 10
1.286120
 20
2.364120
  0
VERTEX
  8
0
  6
CONTINUOUS
 10
1.285680
 20
3.127960
  0
VERTEX
  8
0
  6
CONTINUOUS
 10
1.293160
 20
3.212440
  0
VERTEX
  8
0
  6
CONTINUOUS
 10
1.294040
 20
2.448600
  0
VERTEX
  8
0
  6
CONTINUOUS
 10
1.286120
 20
2.364120
  0
SEQEND
  8
0
  0
SOLID
  8
0
 62
    15
 10
1.294040
 20
2.448600
 11
1.293160
 21
3.212440
 12
1.307680
 22
2.528240
 13
1.306800
 23
3.292080
  0
POLYLINE
  8
0
  6
CONTINUOUS
 66
     1
 40
0.000000
 41
0.000000
  0
VERTEX
  8
0
  6
CONTINUOUS
 10
1.294040
 20
2.448600
  0
VERTEX
  8
0
  6
CONTINUOUS
 10
1.293160
 20
3.212440
  0
VERTEX
  8
0
  6
CONTINUOUS
 10
1.306800
 20
3.292080
  0
VERTEX
  8
0
  6
CONTINUOUS
 10
1.307680
 20
2.528240
  0
VERTEX
  8
0
  6
CONTINUOUS
 10
1.294040
 20
2.448600
  0
SEQEND
  8
0
  0
SOLID
  8
0
 62
    15
 10
1.307680
 20
2.528240
 11
1.306800
 21
3.292080
 12
1.326160
 22
2.603040
 13
1.325720
 23
3.366880
  0
POLYLINE
  8
0
  6
CONTINUOUS
 66
     1
 40
0.000000
 41
0.000000
  0
VERTEX
  8
0
  6
CONTINUOUS
 10
1.307680
 20
2.528240
  0
VERTEX
  8
0
  6
CONTINUOUS
 10
1.306800
 20
3.292080
  0
VERTEX
  8
0
  6
CONTINUOUS
 10
1.325720
 20
3.366880
  0
VERTEX
  8
0
  6
CONTINUOUS
 10
1.326160
 20
2.603040
  0
VERTEX
  8
0
  6
CONTINUOUS
 10
1.307680
 20
2.528240
  0
SEQEND
  8
0
  0
SOLID
  8
0
 62
    15
 10
1.326160
 20
2.603040
 11
1.325720
 21
3.366880
 12
1.350360
 22
2.673000
 13
1.349480
 23
3.436840
  0
POLYLINE
  8
0
  6
CONTINUOUS
 66
     1
 40
0.000000
 41
0.000000
  0
VERTEX
  8
0
  6
CONTINUOUS
 10
1.326160
 20
2.603040
  0
VERTEX
  8
0
  6
CONTINUOUS
 10
1.325720
 20
3.366880
  0
VERTEX
  8
0
  6
CONTINUOUS
 10
1.349480
 20
3.436840
  0
VERTEX
  8
0
  6
CONTINUOUS
 10
1.350360
 20
2.673000
  0
VERTEX
  8
0
  6
CONTINUOUS
 10
1.326160
 20
2.603040
  0
SEQEND
  8
0
  0
SOLID
  8
0
 62
    15
 10
1.350360
 20
2.673000
 11
1.349480
 21
3.436840
 12
1.378960
 22
2.738560
 13
1.378080
 23
3.502400
  0
POLYLINE
  8
0
  6
CONTINUOUS
 66
     1
 40
0.000000
 41
0.000000
  0
VERTEX
  8
0
  6
CONTINUOUS
 10
1.350360
 20
2.673000
  0
VERTEX
  8
0
  6
CONTINUOUS
 10
1.349480
 20
3.436840
  0
VERTEX
  8
0
  6
CONTINUOUS
 10
1.378080
 20
3.502400
  0
VERTEX
  8
0
  6
CONTINUOUS
 10
1.378960
 20
2.738560
  0
VERTEX
  8
0
  6
CONTINUOUS
 10
1.350360
 20
2.673000
  0
SEQEND
  8
0
  0
SOLID
  8
0
 62
    15
 10
1.378960
 20
2.738560
 11
1.378080
 21
3.502400
 12
1.411520
 22
2.799720
 13
1.411080
 23
3.563560
  0
POLYLINE
  8
0
  6
CONTINUOUS
 66
     1
 40
0.000000
 41
0.000000
  0
VERTEX
  8
0
  6
CONTINUOUS
 10
1.378960
 20
2.738560
  0
VERTEX
  8
0
  6
CONTINUOUS
 10
1.378080
 20
3.502400
  0
VERTEX
  8
0
  6
CONTINUOUS
 10
1.411080
 20
3.563560
  0
VERTEX
  8
0
  6
CONTINUOUS
 10
1.411520
 20
2.799720
  0
VERTEX
  8
0
  6
CONTINUOUS
 10
1.378960
 20
2.738560
  0
SEQEND
  8
0
  0
SOLID
  8
0
 62
    15
 10
1.411520
 20
2.799720
 11
1.411080
 21
3.563560
 12
1.448480
 22
2.856480
 13
1.447600
 23
3.620760
  0
POLYLINE
  8
0
  6
CONTINUOUS
 66
     1
 40
0.000000
 41
0.000000
  0
VERTEX
  8
0
  6
CONTINUOUS
 10
1.411520
 20
2.799720
  0
VERTEX
  8
0
  6
CONTINUOUS
 10
1.411080
 20
3.563560
  0
VERTEX
  8
0
  6
CONTINUOUS
 10
1.447600
 20
3.620760
  0
VERTEX
  8
0
  6
CONTINUOUS
 10
1.448480
 20
2.856480
  0
VERTEX
  8
0
  6
CONTINUOUS
 10
1.411520
 20
2.799720
  0
SEQEND
  8
0
  0
SOLID
  8
0
 62
    15
 10
1.448480
 20
2.856480
 11
1.447600
 21
3.620760
 12
1.488960
 22
2.909280
 13
1.488080
 23
3.673560
  0
POLYLINE
  8
0
  6
CONTINUOUS
 66
     1
 40
0.000000
 41
0.000000
  0
VERTEX
  8
0
  6
CONTINUOUS
 10
1.448480
 20
2.856480
  0
VERTEX
  8
0
  6
CONTINUOUS
 10
1.447600
 20
3.620760
  0
VERTEX
  8
0
  6
CONTINUOUS
 10
1.488080
 20
3.673560
  0
VERTEX
  8
0
  6
CONTINUOUS
 10
1.488960
 20
2.909280
  0
VERTEX
  8
0
  6
CONTINUOUS
 10
1.448480
 20
2.856480
  0
SEQEND
  8
0
  0
SOLID
  8
0
 62
    15
 10
1.488960
 20
2.909280
 11
1.488080
 21
3.673560
 12
1.532520
 22
2.958560
 13
1.531640
 23
3.722400
  0
POLYLINE
  8
0
  6
CONTINUOUS
 66
     1
 40
0.000000
 41
0.000000
  0
VERTEX
  8
0
  6
CONTINUOUS
 10
1.488960
 20
2.909280
  0
VERTEX
  8
0
  6
CONTINUOUS
 10
1.488080
 20
3.673560
  0
VERTEX
  8
0
  6
CONTINUOUS
 10
1.531640
 20
3.722400
  0
VERTEX
  8
0
  6
CONTINUOUS
 10
1.532520
 20
2.958560
  0
VERTEX
  8
0
  6
CONTINUOUS
 10
1.488960
 20
2.909280
  0
SEQEND
  8
0
  0
SOLID
  8
0
 62
    15
 10
1.532520
 20
2.958560
 11
1.531640
 21
3.722400
 12
1.579160
 22
3.003440
 13
1.578280
 23
3.767280
  0
POLYLINE
  8
0
  6
CONTINUOUS
 66
     1
 40
0.000000
 41
0.000000
  0
VERTEX
  8
0
  6
CONTINUOUS
 10
1.532520
 20
2.958560
  0
VERTEX
  8
0
  6
CONTINUOUS
 10
1.531640
 20
3.722400
  0
VERTEX
  8
0
  6
CONTINUOUS
 10
1.578280
 20
3.767280
  0
VERTEX
  8
0
  6
CONTINUOUS
 10
1.579160
 20
3.003440
  0
VERTEX
  8
0
  6
CONTINUOUS
 10
1.532520
 20
2.958560
  0
SEQEND
  8
0
  0
SOLID
  8
0
 62
    15
 10
1.579160
 20
3.003440
 11
1.578280
 21
3.767280
 12
1.679480
 22
3.083080
 13
1.678600
 23
3.846920
  0
POLYLINE
  8
0
  6
CONTINUOUS
 66
     1
 40
0.000000
 41
0.000000
  0
VERTEX
  8
0
  6
CONTINUOUS
 10
1.579160
 20
3.003440
  0
VERTEX
  8
0
  6
CONTINUOUS
 10
1.578280
 20
3.767280
  0
VERTEX
  8
0
  6
CONTINUOUS
 10
1.678600
 20
3.846920
  0
VERTEX
  8
0
  6
CONTINUOUS
 10
1.679480
 20
3.083080
  0
VERTEX
  8
0
  6
CONTINUOUS
 10
1.579160
 20
3.003440
  0
SEQEND
  8
0
  0
SOLID
  8
0
 62
    15
 10
1.679480
 20
3.083080
 11
1.678600
 21
3.846920
 12
1.787280
 22
3.149080
 13
1.786400
 23
3.912920
  0
POLYLINE
  8
0
  6
CONTINUOUS
 66
     1
 40
0.000000
 41
0.000000
  0
VERTEX
  8
0
  6
CONTINUOUS
 10
1.679480
 20
3.083080
  0
VERTEX
  8
0
  6
CONTINUOUS
 10
1.678600
 20
3.846920
  0
VERTEX
  8
0
  6
CONTINUOUS
 10
1.786400
 20
3.912920
  0
VERTEX
  8
0
  6
CONTINUOUS
 10
1.787280
 20
3.149080
  0
VERTEX
  8
0
  6
CONTINUOUS
 10
1.679480
 20
3.083080
  0
SEQEND
  8
0
  0
SOLID
  8
0
 62
    15
 10
1.787280
 20
3.149080
 11
1.786400
 21
3.912920
 12
1.899480
 22
3.203200
 13
1.898600
 23
3.967040
  0
POLYLINE
  8
0
  6
CONTINUOUS
 66
     1
 40
0.000000
 41
0.000000
  0
VERTEX
  8
0
  6
CONTINUOUS
 10
1.787280
 20
3.149080
  0
VERTEX
  8
0
  6
CONTINUOUS
 10
1.786400
 20
3.912920
  0
VERTEX
  8
0
  6
CONTINUOUS
 10
1.898600
 20
3.967040
  0
VERTEX
  8
0
  6
CONTINUOUS
 10
1.899480
 20
3.203200
  0
VERTEX
  8
0
  6
CONTINUOUS
 10
1.787280
 20
3.149080
  0
SEQEND
  8
0
  0
SOLID
  8
0
 62
    15
 10
1.899480
 20
3.203200
 11
1.898600
 21
3.967040
 12
2.013440
 22
3.246320
 13
2.012560
 23
4.010160
  0
POLYLINE
  8
0
  6
CONTINUOUS
 66
     1
 40
0.000000
 41
0.000000
  0
VERTEX
  8
0
  6
CONTINUOUS
 10
1.899480
 20
3.203200
  0
VERTEX
  8
0
  6
CONTINUOUS
 10
1.898600
 20
3.967040
  0
VERTEX
  8
0
  6
CONTINUOUS
 10
2.012560
 20
4.010160
  0
VERTEX
  8
0
  6
CONTINUOUS
 10
2.013440
 20
3.246320
  0
VERTEX
  8
0
  6
CONTINUOUS
 10
1.899480
 20
3.203200
  0
SEQEND
  8
0
  0
SOLID
  8
0
 62
    15
 10
2.013440
 20
3.246320
 11
2.012560
 21
4.010160
 12
2.126080
 22
3.279760
 13
2.125640
 23
4.044040
  0
POLYLINE
  8
0
  6
CONTINUOUS
 66
     1
 40
0.000000
 41
0.000000
  0
VERTEX
  8
0
  6
CONTINUOUS
 10
2.013440
 20
3.246320
  0
VERTEX
  8
0
  6
CONTINUOUS
 10
2.012560
 20
4.010160
  0
VERTEX
  8
0
  6
CONTINUOUS
 10
2.125640
 20
4.044040
  0
VERTEX
  8
0
  6
CONTINUOUS
 10
2.126080
 20
3.279760
  0
VERTEX
  8
0
  6
CONTINUOUS
 10
2.013440
 20
3.246320
  0
SEQEND
  8
0
  0
SOLID
  8
0
 62
    15
 10
2.126080
 20
3.279760
 11
2.125640
 21
4.044040
 12
2.235200
 22
3.304840
 13
2.234320
 23
4.069120
  0
POLYLINE
  8
0
  6
CONTINUOUS
 66
     1
 40
0.000000
 41
0.000000
  0
VERTEX
  8
0
  6
CONTINUOUS
 10
2.126080
 20
3.279760
  0
VERTEX
  8
0
  6
CONTINUOUS
 10
2.125640
 20
4.044040
  0
VERTEX
  8
0
  6
CONTINUOUS
 10
2.234320
 20
4.069120
  0
VERTEX
  8
0
  6
CONTINUOUS
 10
2.235200
 20
3.304840
  0
VERTEX
  8
0
  6
CONTINUOUS
 10
2.126080
 20
3.279760
  0
SEQEND
  8
0
  0
SOLID
  8
0
 62
    15
 10
2.235200
 20
3.304840
 11
2.234320
 21
4.069120
 12
2.337280
 22
3.322880
 13
2.336840
 23
4.086720
  0
POLYLINE
  8
0
  6
CONTINUOUS
 66
     1
 40
0.000000
 41
0.000000
  0
VERTEX
  8
0
  6
CONTINUOUS
 10
2.235200
 20
3.304840
  0
VERTEX
  8
0
  6
CONTINUOUS
 10
2.234320
 20
4.069120
  0
VERTEX
  8
0
  6
CONTINUOUS
 10
2.336840
 20
4.086720
  0
VERTEX
  8
0
  6
CONTINUOUS
 10
2.337280
 20
3.322880
  0
VERTEX
  8
0
  6
CONTINUOUS
 10
2.235200
 20
3.304840
  0
SEQEND
  8
0
  0
SOLID
  8
0
 62
    15
 10
2.337280
 20
3.322880
 11
2.336840
 21
4.086720
 12
2.430120
 22
3.334320
 13
2.429680
 23
4.098160
  0
POLYLINE
  8
0
  6
CONTINUOUS
 66
     1
 40
0.000000
 41
0.000000
  0
VERTEX
  8
0
  6
CONTINUOUS
 10
2.337280
 20
3.322880
  0
VERTEX
  8
0
  6
CONTINUOUS
 10
2.336840
 20
4.086720
  0
VERTEX
  8
0
  6
CONTINUOUS
 10
2.429680
 20
4.098160
  0
VERTEX
  8
0
  6
CONTINUOUS
 10
2.430120
 20
3.334320
  0
VERTEX
  8
0
  6
CONTINUOUS
 10
2.337280
 20
3.322880
  0
SEQEND
  8
0
  0
SOLID
  8
0
 62
    15
 10
2.430120
 20
3.334320
 11
2.429680
 21
4.098160
 12
2.510640
 22
3.341360
 13
2.510200
 23
4.105200
  0
POLYLINE
  8
0
  6
CONTINUOUS
 66
     1
 40
0.000000
 41
0.000000
  0
VERTEX
  8
0
  6
CONTINUOUS
 10
2.430120
 20
3.334320
  0
VERTEX
  8
0
  6
CONTINUOUS
 10
2.429680
 20
4.098160
  0
VERTEX
  8
0
  6
CONTINUOUS
 10
2.510200
 20
4.105200
  0
VERTEX
  8
0
  6
CONTINUOUS
 10
2.510640
 20
3.341360
  0
VERTEX
  8
0
  6
CONTINUOUS
 10
2.430120
 20
3.334320
  0
SEQEND
  8
0
  0
SOLID
  8
0
 62
    15
 10
2.510640
 20
3.341360
 11
2.510200
 21
4.105200
 12
2.576200
 22
3.344440
 13
2.575320
 23
4.108280
  0
POLYLINE
  8
0
  6
CONTINUOUS
 66
     1
 40
0.000000
 41
0.000000
  0
VERTEX
  8
0
  6
CONTINUOUS
 10
2.510640
 20
3.341360
  0
VERTEX
  8
0
  6
CONTINUOUS
 10
2.510200
 20
4.105200
  0
VERTEX
  8
0
  6
CONTINUOUS
 10
2.575320
 20
4.108280
  0
VERTEX
  8
0
  6
CONTINUOUS
 10
2.576200
 20
3.344440
  0
VERTEX
  8
0
  6
CONTINUOUS
 10
2.510640
 20
3.341360
  0
SEQEND
  8
0
  0
SOLID
  8
0
 62
    15
 10
2.576200
 20
3.344440
 11
2.575320
 21
4.108280
 12
2.602160
 22
3.345320
 13
2.601280
 23
4.109160
  0
POLYLINE
  8
0
  6
CONTINUOUS
 66
     1
 40
0.000000
 41
0.000000
  0
VERTEX
  8
0
  6
CONTINUOUS
 10
2.576200
 20
3.344440
  0
VERTEX
  8
0
  6
CONTINUOUS
 10
2.575320
 20
4.108280
  0
VERTEX
  8
0
  6
CONTINUOUS
 10
2.601280
 20
4.109160
  0
VERTEX
  8
0
  6
CONTINUOUS
 10
2.602160
 20
3.345320
  0
VERTEX
  8
0
  6
CONTINUOUS
 10
2.576200
 20
3.344440
  0
SEQEND
  8
0
  0
SOLID
  8
0
 62
    15
 10
2.602160
 20
3.345320
 11
2.601280
 21
4.109160
 12
2.623720
 22
3.345320
 13
2.622840
 23
4.109160
  0
POLYLINE
  8
0
  6
CONTINUOUS
 66
     1
 40
0.000000
 41
0.000000
  0
VERTEX
  8
0
  6
CONTINUOUS
 10
2.602160
 20
3.345320
  0
VERTEX
  8
0
  6
CONTINUOUS
 10
2.601280
 20
4.109160
  0
VERTEX
  8
0
  6
CONTINUOUS
 10
2.622840
 20
4.109160
  0
VERTEX
  8
0
  6
CONTINUOUS
 10
2.623720
 20
3.345320
  0
VERTEX
  8
0
  6
CONTINUOUS
 10
2.602160
 20
3.345320
  0
SEQEND
  8
0
  0
SOLID
  8
0
 62
    15
 10
2.623720
 20
3.345320
 11
2.622840
 21
4.109160
 12
2.650120
 22
3.345320
 13
2.649240
 23
4.109160
  0
POLYLINE
  8
0
  6
CONTINUOUS
 66
     1
 40
0.000000
 41
0.000000
  0
VERTEX
  8
0
  6
CONTINUOUS
 10
2.623720
 20
3.345320
  0
VERTEX
  8
0
  6
CONTINUOUS
 10
2.622840
 20
4.109160
  0
VERTEX
  8
0
  6
CONTINUOUS
 10
2.649240
 20
4.109160
  0
VERTEX
  8
0
  6
CONTINUOUS
 10
2.650120
 20
3.345320
  0
VERTEX
  8
0
  6
CONTINUOUS
 10
2.623720
 20
3.345320
  0
SEQEND
  8
0
  0
POLYLINE
  8
0
  6
CONTINUOUS
 66
     1
 40
0.000000
 41
0.000000
  0
VERTEX
  8
0
  6
CONTINUOUS
 10
2.632960
 20
3.345320
  0
VERTEX
  8
0
  6
CONTINUOUS
 10
2.721400
 20
3.344440
  0
VERTEX
  8
0
  6
CONTINUOUS
 10
2.786960
 20
3.341360
  0
VERTEX
  8
0
  6
CONTINUOUS
 10
2.867480
 20
3.334320
  0
VERTEX
  8
0
  6
CONTINUOUS
 10
2.960320
 20
3.322880
  0
VERTEX
  8
0
  6
CONTINUOUS
 10
3.062400
 20
3.304840
  0
VERTEX
  8
0
  6
CONTINUOUS
 10
3.171520
 20
3.279760
  0
VERTEX
  8
0
  6
CONTINUOUS
 10
3.284160
 20
3.246320
  0
VERTEX
  8
0
  6
CONTINUOUS
 10
3.398560
 20
3.203200
  0
VERTEX
  8
0
  6
CONTINUOUS
 10
3.510320
 20
3.149080
  0
VERTEX
  8
0
  6
CONTINUOUS
 10
3.618120
 20
3.083080
  0
VERTEX
  8
0
  6
CONTINUOUS
 10
3.718440
 20
3.003440
  0
VERTEX
  8
0
  6
CONTINUOUS
 10
3.765080
 20
2.958560
  0
VERTEX
  8
0
  6
CONTINUOUS
 10
3.808640
 20
2.909280
  0
VERTEX
  8
0
  6
CONTINUOUS
 10
3.849120
 20
2.856480
  0
VERTEX
  8
0
  6
CONTINUOUS
 10
3.886080
 20
2.799720
  0
VERTEX
  8
0
  6
CONTINUOUS
 10
3.918640
 20
2.738560
  0
VERTEX
  8
0
  6
CONTINUOUS
 10
3.947240
 20
2.673000
  0
VERTEX
  8
0
  6
CONTINUOUS
 10
3.971000
 20
2.603040
  0
VERTEX
  8
0
  6
CONTINUOUS
 10
3.989920
 20
2.528240
  0
VERTEX
  8
0
  6
CONTINUOUS
 10
4.003560
 20
2.448600
  0
VERTEX
  8
0
  6
CONTINUOUS
 10
4.011480
 20
2.364120
  0
VERTEX
  8
0
  6
CONTINUOUS
 10
4.014120
 20
2.360160
  0
VERTEX
  8
0
  6
CONTINUOUS
 10
1.286120
 20
2.360160
  0
VERTEX
  8
0
  6
CONTINUOUS
 10
1.294040
 20
2.448600
  0
VERTEX
  8
0
  6
CONTINUOUS
 10
1.307680
 20
2.528240
  0
VERTEX
  8
0
  6
CONTINUOUS
 10
1.326160
 20
2.603040
  0
VERTEX
  8
0
  6
CONTINUOUS
 10
1.350360
 20
2.673000
  0
VERTEX
  8
0
  6
CONTINUOUS
 10
1.378960
 20
2.738560
  0
VERTEX
  8
0
  6
CONTINUOUS
 10
1.411520
 20
2.799720
  0
VERTEX
  8
0
  6
CONTINUOUS
 10
1.448480
 20
2.856480
  0
VERTEX
  8
0
  6
CONTINUOUS
 10
1.488960
 20
2.909280
  0
VERTEX
  8
0
  6
CONTINUOUS
 10
1.532520
 20
2.958560
  0
VERTEX
  8
0
  6
CONTINUOUS
 10
1.579160
 20
3.003440
  0
VERTEX
  8
0
  6
CONTINUOUS
 10
1.679480
 20
3.083080
  0
VERTEX
  8
0
  6
CONTINUOUS
 10
1.787280
 20
3.149080
  0
VERTEX
  8
0
  6
CONTINUOUS
 10
1.899480
 20
3.203200
  0
VERTEX
  8
0
  6
CONTINUOUS
 10
2.013440
 20
3.246320
  0
VERTEX
  8
0
  6
CONTINUOUS
 10
2.126080
 20
3.279760
  0
VERTEX
  8
0
  6
CONTINUOUS
 10
2.235200
 20
3.304840
  0
VERTEX
  8
0
  6
CONTINUOUS
 10
2.337280
 20
3.322880
  0
VERTEX
  8
0
  6
CONTINUOUS
 10
2.430120
 20
3.334320
  0
VERTEX
  8
0
  6
CONTINUOUS
 10
2.510640
 20
3.341360
  0
VERTEX
  8
0
  6
CONTINUOUS
 10
2.602160
 20
3.345320
  0
VERTEX
  8
0
  6
CONTINUOUS
 10
2.650120
 20
3.345320
  0
VERTEX
  8
0
  6
CONTINUOUS
 10
2.632960
 20
3.345320
  0
SEQEND
  8
0
  0
TEXT
  8
0
 10
1.382480
 20
2.424400
 40
0.138269
  1
A
 41
1.000000
  7
SN0
 71
     0
 72
     5
 11
1.493604
 21
2.424400
  0
TEXT
  8
0
 10
1.388200
 20
1.467840
 40
0.138269
  1
B
 41
1.000000
  7
SN0
 71
     0
 72
     5
 11
1.499324
 21
1.467840
  0
TEXT
  8
0
 10
3.668280
 20
1.107480
 40
0.138269
  1
BA  112A  2-11/16"
 41
1.000000
  7
SN0
 71
     0
 72
     5
 11
5.083039
 21
1.107480
  0
TEXT
  8
0
 10
3.668280
 20
0.915640
 40
0.138269
  1
BA  112B  1" x 6"
 41
1.000000
  7
SN0
 71
     0
 72
     5
 11
4.938670
 21
0.915640
  0
POLYLINE
  8
0
  6
CONTINUOUS
 66
     1
 40
0.014080
 41
0.014080
  0
VERTEX
  8
0
  6
CONTINUOUS
 10
2.798400
 20
6.562600
  0
VERTEX
  8
0
  6
CONTINUOUS
 10
2.845040
 20
6.562600
  0
VERTEX
  8
0
  6
CONTINUOUS
 10
2.839760
 20
6.562600
  0
VERTEX
  8
0
  6
CONTINUOUS
 10
2.917640
 20
6.560400
  0
VERTEX
  8
0
  6
CONTINUOUS
 10
3.011800
 20
6.553800
  0
VERTEX
  8
0
  6
CONTINUOUS
 10
3.101560
 20
6.543240
  0
VERTEX
  8
0
  6
CONTINUOUS
 10
3.175920
 20
6.531800
  0
VERTEX
  8
0
  6
CONTINUOUS
 10
3.281960
 20
6.510680
  0
VERTEX
  8
0
  6
CONTINUOUS
 10
3.393280
 20
6.481640
  0
VERTEX
  8
0
  6
CONTINUOUS
 10
3.450040
 20
6.463600
  0
VERTEX
  8
0
  6
CONTINUOUS
 10
3.535840
 20
6.432360
  0
VERTEX
  8
0
  6
CONTINUOUS
 10
3.620760
 20
6.394960
  0
VERTEX
  8
0
  6
CONTINUOUS
 10
3.703920
 20
6.350960
  0
VERTEX
  8
0
  6
CONTINUOUS
 10
3.757600
 20
6.317960
  0
VERTEX
  8
0
  6
CONTINUOUS
 10
3.809960
 20
6.281440
  0
VERTEX
  8
0
  6
CONTINUOUS
 10
3.860120
 20
6.241840
  0
VERTEX
  8
0
  6
CONTINUOUS
 10
3.908080
 20
6.198720
  0
VERTEX
  8
0
  6
CONTINUOUS
 10
3.952960
 20
6.151640
  0
VERTEX
  8
0
  6
CONTINUOUS
 10
3.995200
 20
6.101040
  0
VERTEX
  8
0
  6
CONTINUOUS
 10
4.033920
 20
6.046040
  0
VERTEX
  8
0
  6
CONTINUOUS
 10
4.068680
 20
5.987080
  0
VERTEX
  8
0
  6
CONTINUOUS
 10
4.099480
 20
5.923720
  0
VERTEX
  8
0
  6
CONTINUOUS
 10
4.125880
 20
5.855960
  0
VERTEX
  8
0
  6
CONTINUOUS
 10
4.147000
 20
5.783360
  0
VERTEX
  8
0
  6
CONTINUOUS
 10
4.155800
 20
5.745520
  0
VERTEX
  8
0
  6
CONTINUOUS
 10
4.163280
 20
5.706360
  0
VERTEX
  8
0
  6
CONTINUOUS
 10
4.174280
 20
5.624520
  0
VERTEX
  8
0
  6
CONTINUOUS
 10
4.177360
 20
5.581400
  0
VERTEX
  8
0
  6
CONTINUOUS
 10
4.180000
 20
5.577440
  0
VERTEX
  8
0
  6
CONTINUOUS
 10
1.452000
 20
5.577440
  0
VERTEX
  8
0
  6
CONTINUOUS
 10
1.455080
 20
5.624520
  0
VERTEX
  8
0
  6
CONTINUOUS
 10
1.466080
 20
5.706360
  0
VERTEX
  8
0
  6
CONTINUOUS
 10
1.473560
 20
5.745520
  0
VERTEX
  8
0
  6
CONTINUOUS
 10
1.492480
 20
5.820320
  0
VERTEX
  8
0
  6
CONTINUOUS
 10
1.503480
 20
5.855960
  0
VERTEX
  8
0
  6
CONTINUOUS
 10
1.529880
 20
5.923720
  0
VERTEX
  8
0
  6
CONTINUOUS
 10
1.560680
 20
5.987080
  0
VERTEX
  8
0
  6
CONTINUOUS
 10
1.595440
 20
6.046040
  0
VERTEX
  8
0
  6
CONTINUOUS
 10
1.634160
 20
6.101040
  0
VERTEX
  8
0
  6
CONTINUOUS
 10
1.675960
 20
6.151640
  0
VERTEX
  8
0
  6
CONTINUOUS
 10
1.721280
 20
6.198720
  0
VERTEX
  8
0
  6
CONTINUOUS
 10
1.769240
 20
6.241840
  0
VERTEX
  8
0
  6
CONTINUOUS
 10
1.819400
 20
6.281440
  0
VERTEX
  8
0
  6
CONTINUOUS
 10
1.871760
 20
6.317960
  0
VERTEX
  8
0
  6
CONTINUOUS
 10
1.925440
 20
6.350960
  0
VERTEX
  8
0
  6
CONTINUOUS
 10
2.008600
 20
6.394960
  0
VERTEX
  8
0
  6
CONTINUOUS
 10
2.093520
 20
6.432360
  0
VERTEX
  8
0
  6
CONTINUOUS
 10
2.178880
 20
6.463600
  0
VERTEX
  8
0
  6
CONTINUOUS
 10
2.235640
 20
6.481640
  0
VERTEX
  8
0
  6
CONTINUOUS
 10
2.346960
 20
6.510680
  0
VERTEX
  8
0
  6
CONTINUOUS
 10
2.453000
 20
6.531800
  0
VERTEX
  8
0
  6
CONTINUOUS
 10
2.527360
 20
6.543240
  0
VERTEX
  8
0
  6
CONTINUOUS
 10
2.617560
 20
6.553800
  0
VERTEX
  8
0
  6
CONTINUOUS
 10
2.711280
 20
6.560400
  0
VERTEX
  8
0
  6
CONTINUOUS
 10
2.789160
 20
6.562600
  0
VERTEX
  8
0
  6
CONTINUOUS
 10
2.772000
 20
6.562600
  0
VERTEX
  8
0
  6
CONTINUOUS
 10
2.816000
 20
6.562600
  0
VERTEX
  8
0
  6
CONTINUOUS
 10
2.798400
 20
6.562600
  0
SEQEND
  8
0
  0
TEXT
  8
0
 10
1.674200
 20
5.721760
 40
0.138269
  1
112A
 41
1.000000
  7
SN1
 71
     0
 72
     5
 11
2.061443
 21
5.721760
  0
POLYLINE
  8
0
  6
CONTINUOUS
 66
     1
 40
0.014080
 41
0.014080
  0
VERTEX
  8
0
  6
CONTINUOUS
 10
6.083440
 20
5.444560
  0
VERTEX
  8
0
  6
CONTINUOUS
 10
6.161320
 20
5.442360
  0
VERTEX
  8
0
  6
CONTINUOUS
 10
6.255480
 20
5.435760
  0
VERTEX
  8
0
  6
CONTINUOUS
 10
6.345240
 20
5.425200
  0
VERTEX
  8
0
  6
CONTINUOUS
 10
6.419600
 20
5.413760
  0
VERTEX
  8
0
  6
CONTINUOUS
 10
6.525640
 20
5.392640
  0
VERTEX
  8
0
  6
CONTINUOUS
 10
6.636960
 20
5.363600
  0
VERTEX
  8
0
  6
CONTINUOUS
 10
6.693720
 20
5.345560
  0
VERTEX
  8
0
  6
CONTINUOUS
 10
6.779520
 20
5.314320
  0
VERTEX
  8
0
  6
CONTINUOUS
 10
6.864440
 20
5.276920
  0
VERTEX
  8
0
  6
CONTINUOUS
 10
6.947600
 20
5.232920
  0
VERTEX
  8
0
  6
CONTINUOUS
 10
7.001720
 20
5.199920
  0
VERTEX
  8
0
  6
CONTINUOUS
 10
7.054080
 20
5.163400
  0
VERTEX
  8
0
  6
CONTINUOUS
 10
7.104240
 20
5.123800
  0
VERTEX
  8
0
  6
CONTINUOUS
 10
7.152200
 20
5.080240
  0
VERTEX
  8
0
  6
CONTINUOUS
 10
7.197080
 20
5.033160
  0
VERTEX
  8
0
  6
CONTINUOUS
 10
7.239320
 20
4.982560
  0
VERTEX
  8
0
  6
CONTINUOUS
 10
7.278040
 20
4.927560
  0
VERTEX
  8
0
  6
CONTINUOUS
 10
7.312800
 20
4.868600
  0
VERTEX
  8
0
  6
CONTINUOUS
 10
7.343600
 20
4.805240
  0
VERTEX
  8
0
  6
CONTINUOUS
 10
7.370000
 20
4.737040
  0
VERTEX
  8
0
  6
CONTINUOUS
 10
7.391120
 20
4.664880
  0
VERTEX
  8
0
  6
CONTINUOUS
 10
7.407400
 20
4.587440
  0
VERTEX
  8
0
  6
CONTINUOUS
 10
7.418400
 20
4.505600
  0
VERTEX
  8
0
  6
CONTINUOUS
 10
7.421480
 20
4.462480
  0
VERTEX
  8
0
  6
CONTINUOUS
 10
7.415760
 20
4.456760
  0
VERTEX
  8
0
  6
CONTINUOUS
 10
1.416800
 20
4.456760
  0
VERTEX
  8
0
  6
CONTINUOUS
 10
1.416800
 20
5.440600
  0
VERTEX
  8
0
  6
CONTINUOUS
 10
6.106760
 20
5.440600
  0
VERTEX
  8
0
  6
CONTINUOUS
 10
6.083440
 20
5.444560
  0
SEQEND
  8
0
  0
TEXT
  8
0
 10
1.713800
 20
4.573360
 40
0.138269
  1
112B
 41
1.000000
  7
SN0
 71
     0
 72
     5
 11
2.101966
 21
4.573360
  0
TEXT
  8
0
 10
3.278440
 20
4.858480
 40
0.138269
  1
BA  112A  2-11/16"
 41
1.000000
  7
SN0
 71
     0
 72
     5
 11
4.693199
 21
4.858480
  0
TEXT
  8
0
 10
3.278440
 20
4.667080
 40
0.138269
  1
BA  112B  1" x 6"
 41
1.000000
  7
SN0
 71
     0
 72
     5
 11
4.548830
 21
4.667080
  0
TEXT
  8
0
 10
2.194280
 20
5.970360
 40
0.138269
  1
BA  112A  2-11/16"
 41
1.000000
  7
SN0
 71
     0
 72
     5
 11
3.609039
 21
5.970360
  0
TEXT
  8
0
 10
2.194280
 20
5.778520
 40
0.138269
  1
BA  112B  1" x 6"
 41
1.000000
  7
SN0
 71
     0
 72
     5
 11
3.464670
 21
5.778520
  0
ENDSEC
  0
EOF
